  0
SECTION
  2
HEADER
  9
$ACADVER
  1
AC1015
  9
$ACADMAINTVER
 70
    20
  9
$DWGCODEPAGE
  3
ANSI_932
  9
$INSBASE
 10
0.0
 20
0.0
 30
0.0
  9
$EXTMIN
 10
68.01966605892221
 20
40.08263968962308
 30
0.0
  9
$EXTMAX
 10
351.6258066275025
 20
229.7668618605257
 30
0.0
  9
$LIMMIN
 10
0.0
 20
0.0
  9
$LIMMAX
 10
420.0
 20
297.0
  9
$ORTHOMODE
 70
     1
  9
$REGENMODE
 70
     1
  9
$FILLMODE
 70
     1
  9
$QTEXTMODE
 70
     0
  9
$MIRRTEXT
 70
     0
  9
$LTSCALE
 40
1.0
  9
$ATTMODE
 70
     1
  9
$TEXTSIZE
 40
2.5
  9
$TRACEWID
 40
1.0
  9
$TEXTSTYLE
  7
STANDARD
  9
$CLAYER
  8
0
  9
$CELTYPE
  6
ByLayer
  9
$CECOLOR
 62
   256
  9
$CELTSCALE
 40
1.0
  9
$DISPSILH
 70
     0
  9
$DIMSCALE
 40
1.0
  9
$DIMASZ
 40
2.5
  9
$DIMEXO
 40
1.0
  9
$DIMDLI
 40
10.0
  9
$DIMRND
 40
0.0
  9
$DIMDLE
 40
0.0
  9
$DIMEXE
 40
1.0
  9
$DIMTP
 40
0.1
  9
$DIMTM
 40
0.1
  9
$DIMTXT
 40
3.5
  9
$DIMCEN
 40
0.0
  9
$DIMTSZ
 40
0.0
  9
$DIMTOL
 70
     0
  9
$DIMLIM
 70
     0
  9
$DIMTIH
 70
     0
  9
$DIMTOH
 70
     0
  9
$DIMSE1
 70
     0
  9
$DIMSE2
 70
     0
  9
$DIMTAD
 70
     1
  9
$DIMZIN
 70
     8
  9
$DIMBLK
  1

  9
$DIMASO
 70
     1
  9
$DIMSHO
 70
     1
  9
$DIMPOST
  1

  9
$DIMAPOST
  1
"
  9
$DIMALT
 70
     0
  9
$DIMALTD
 70
     2
  9
$DIMALTF
 40
0.0393701
  9
$DIMLFAC
 40
1.0
  9
$DIMTOFL
 70
     1
  9
$DIMTVP
 40
0.0
  9
$DIMTIX
 70
     0
  9
$DIMSOXD
 70
     0
  9
$DIMSAH
 70
     0
  9
$DIMBLK1
  1

  9
$DIMBLK2
  1

  9
$DIMSTYLE
  2
AM_ISO
  9
$DIMCLRD
 70
   256
  9
$DIMCLRE
 70
   256
  9
$DIMCLRT
 70
     2
  9
$DIMTFAC
 40
0.71
  9
$DIMGAP
 40
1.5
  9
$DIMJUST
 70
     0
  9
$DIMSD1
 70
     0
  9
$DIMSD2
 70
     0
  9
$DIMTOLJ
 70
     0
  9
$DIMTZIN
 70
     8
  9
$DIMALTZ
 70
     0
  9
$DIMALTTZ
 70
     0
  9
$DIMUPT
 70
     0
  9
$DIMDEC
 70
     2
  9
$DIMTDEC
 70
     3
  9
$DIMALTU
 70
     2
  9
$DIMALTTD
 70
     4
  9
$DIMTXSTY
  7
STANDARD
  9
$DIMAUNIT
 70
     0
  9
$DIMADEC
 70
     0
  9
$DIMALTRND
 40
0.0
  9
$DIMAZIN
 70
     2
  9
$DIMDSEP
 70
    46
  9
$DIMATFIT
 70
     3
  9
$DIMFRAC
 70
     0
  9
$DIMLDRBLK
  1

  9
$DIMLUNIT
 70
     2
  9
$DIMLWD
 70
    -1
  9
$DIMLWE
 70
    -1
  9
$DIMTMOVE
 70
     0
  9
$LUNITS
 70
     2
  9
$LUPREC
 70
     2
  9
$SKETCHINC
 40
1.0
  9
$FILLETRAD
 40
2.5
  9
$AUNITS
 70
     0
  9
$AUPREC
 70
     0
  9
$MENU
  1
.
  9
$ELEVATION
 40
0.0
  9
$PELEVATION
 40
0.0
  9
$THICKNESS
 40
0.0
  9
$LIMCHECK
 70
     0
  9
$CHAMFERA
 40
2.5
  9
$CHAMFERB
 40
2.5
  9
$CHAMFERC
 40
0.0
  9
$CHAMFERD
 40
0.0
  9
$SKPOLY
 70
     0
  9
$TDCREATE
 40
2457002.571584919
  9
$TDUCREATE
 40
2457002.196584919
  9
$TDUPDATE
 40
2457008.699233218
  9
$TDUUPDATE
 40
2457008.324233218
  9
$TDINDWG
 40
0.0266091435
  9
$TDUSRTIMER
 40
0.0266024537
  9
$USRTIMER
 70
     1
  9
$ANGBASE
 50
0.0
  9
$ANGDIR
 70
     0
  9
$PDMODE
 70
     0
  9
$PDSIZE
 40
0.0
  9
$PLINEWID
 40
0.0
  9
$SPLFRAME
 70
     0
  9
$SPLINETYPE
 70
     6
  9
$SPLINESEGS
 70
     8
  9
$HANDSEED
  5
19EA
  9
$SURFTAB1
 70
     6
  9
$SURFTAB2
 70
     6
  9
$SURFTYPE
 70
     6
  9
$SURFU
 70
     6
  9
$SURFV
 70
     6
  9
$UCSBASE
  2

  9
$UCSNAME
  2

  9
$UCSORG
 10
0.0
 20
0.0
 30
0.0
  9
$UCSXDIR
 10
1.0
 20
0.0
 30
0.0
  9
$UCSYDIR
 10
0.0
 20
1.0
 30
0.0
  9
$UCSORTHOREF
  2

  9
$UCSORTHOVIEW
 70
     0
  9
$UCSORGTOP
 10
0.0
 20
0.0
 30
0.0
  9
$UCSORGBOTTOM
 10
0.0
 20
0.0
 30
0.0
  9
$UCSORGLEFT
 10
0.0
 20
0.0
 30
0.0
  9
$UCSORGRIGHT
 10
0.0
 20
0.0
 30
0.0
  9
$UCSORGFRONT
 10
0.0
 20
0.0
 30
0.0
  9
$UCSORGBACK
 10
0.0
 20
0.0
 30
0.0
  9
$PUCSBASE
  2

  9
$PUCSNAME
  2

  9
$PUCSORG
 10
0.0
 20
0.0
 30
0.0
  9
$PUCSXDIR
 10
1.0
 20
0.0
 30
0.0
  9
$PUCSYDIR
 10
0.0
 20
1.0
 30
0.0
  9
$PUCSORTHOREF
  2

  9
$PUCSORTHOVIEW
 70
     0
  9
$PUCSORGTOP
 10
0.0
 20
0.0
 30
0.0
  9
$PUCSORGBOTTOM
 10
0.0
 20
0.0
 30
0.0
  9
$PUCSORGLEFT
 10
0.0
 20
0.0
 30
0.0
  9
$PUCSORGRIGHT
 10
0.0
 20
0.0
 30
0.0
  9
$PUCSORGFRONT
 10
0.0
 20
0.0
 30
0.0
  9
$PUCSORGBACK
 10
0.0
 20
0.0
 30
0.0
  9
$USERI1
 70
     0
  9
$USERI2
 70
     0
  9
$USERI3
 70
     0
  9
$USERI4
 70
     0
  9
$USERI5
 70
     0
  9
$USERR1
 40
0.0
  9
$USERR2
 40
0.0
  9
$USERR3
 40
0.0
  9
$USERR4
 40
0.0
  9
$USERR5
 40
0.0
  9
$WORLDVIEW
 70
     1
  9
$SHADEDGE
 70
     3
  9
$SHADEDIF
 70
    70
  9
$TILEMODE
 70
     1
  9
$MAXACTVP
 70
    64
  9
$PINSBASE
 10
0.0
 20
0.0
 30
0.0
  9
$PLIMCHECK
 70
     0
  9
$PEXTMIN
 10
1.000000000000000E+20
 20
1.000000000000000E+20
 30
1.000000000000000E+20
  9
$PEXTMAX
 10
-1.000000000000000E+20
 20
-1.000000000000000E+20
 30
-1.000000000000000E+20
  9
$PLIMMIN
 10
0.0
 20
0.0
  9
$PLIMMAX
 10
420.0
 20
297.0
  9
$UNITMODE
 70
     0
  9
$VISRETAIN
 70
     1
  9
$PLINEGEN
 70
     0
  9
$PSLTSCALE
 70
     1
  9
$TREEDEPTH
 70
  3020
  9
$CMLSTYLE
  2
Standard
  9
$CMLJUST
 70
     0
  9
$CMLSCALE
 40
20.0
  9
$PROXYGRAPHICS
 70
     1
  9
$MEASUREMENT
 70
     1
  9
$CELWEIGHT
370
    -1
  9
$ENDCAPS
280
     0
  9
$JOINSTYLE
280
     0
  9
$LWDISPLAY
290
     0
  9
$INSUNITS
 70
     4
  9
$HYPERLINKBASE
  1

  9
$STYLESHEET
  1

  9
$XEDIT
290
     1
  9
$CEPSNTYPE
380
     0
  9
$PSTYLEMODE
290
     1
  9
$FINGERPRINTGUID
  2
{AC3F1D98-ADF6-497F-AE6F-0378AEA8AB32}
  9
$VERSIONGUID
  2
{F5B3C605-7A90-493D-8B55-62C561BFF967}
  9
$EXTNAMES
290
     1
  9
$PSVPSCALE
 40
0.0
  9
$OLESTARTUP
290
     0
  0
ENDSEC
  0
SECTION
  2
CLASSES
  0
CLASS
  1
ACDBDICTIONARYWDFLT
  2
AcDbDictionaryWithDefault
  3
ObjectDBX Classes
 90
        0
280
     0
281
     0
  0
CLASS
  1
MATERIAL
  2
AcDbMaterial
  3
ObjectDBX Classes
 90
     1153
280
     0
281
     0
  0
CLASS
  1
VISUALSTYLE
  2
AcDbVisualStyle
  3
ObjectDBX Classes
 90
     4095
280
     0
281
     0
  0
CLASS
  1
SCALE
  2
AcDbScale
  3
ObjectDBX Classes
 90
     1153
280
     0
281
     0
  0
CLASS
  1
TABLESTYLE
  2
AcDbTableStyle
  3
ObjectDBX Classes
 90
     4095
280
     0
281
     0
  0
CLASS
  1
MLEADERSTYLE
  2
AcDbMLeaderStyle
  3
ACDB_MLEADERSTYLE_CLASS
 90
     4095
280
     0
281
     0
  0
CLASS
  1
AMGSETTINGSOBJ
  2
AmgSettingsObj
  3
"AcadM|Product Description: AutoCAD Mechanical|Company: Autodesk, Inc."
 90
     1024
280
     0
281
     0
  0
CLASS
  1
ACME_DOCUMENT
  2
AcMeDbDoc
  3
AcMeServices
 90
     1024
280
     0
281
     0
  0
CLASS
  1
ACMESCOPE
  2
AcMeScope
  3
AcMeServices
 90
     1024
280
     0
281
     0
  0
CLASS
  1
ACMECOMMANDHISTORY
  2
AcMeCommandHistory
  3
AcMeServices
 90
     1024
280
     0
281
     0
  0
CLASS
  1
ACIMSYSVARMAN
  2
AcImSysVarManager
  3
AcMeServices
 90
     1024
280
     0
281
     0
  0
CLASS
  1
ACIMINTSYSVAR
  2
AcImIntSysVar
  3
AcMeServices
 90
     1024
280
     0
281
     0
  0
CLASS
  1
ACMEDRAWINGMAN
  2
AcMeDrawingMan
  3
AcMeServices
 90
     1024
280
     0
281
     0
  0
CLASS
  1
ACMEVIEW
  2
AcMeView
  3
AcMeServices
 90
     1024
280
     0
281
     0
  0
CLASS
  1
ACDBENTITYCACHE
  2
AcMeEntityCache
  3
AcMeServices
 90
     1024
280
     0
281
     0
  0
CLASS
  1
GSMANAGER
  2
AcMeGSManager
  3
AcMeServices
 90
     1024
280
     0
281
     0
  0
CLASS
  1
AMDTINTERNALREACTOR
  2
AmdtInternalReactor
  3
AcMeServices
 90
     1024
280
     0
281
     0
  0
CLASS
  1
ACMESTATEMGR
  2
AcMeStateMgr
  3
AcMeServices
 90
     1024
280
     0
281
     0
  0
CLASS
  1
ACGREFMASTER
  2
AcGrefMaster
  3
AcAttribServices
 90
     1024
280
     0
281
     0
  0
CLASS
  1
AM_DRAWING_MGR
  2
AcDmDwgMgr
  3
AcMechDwgViewMgmt
 90
     1024
280
     0
281
     0
  0
CLASS
  1
AM_DWG_DOCUMENT
  2
AcDmDwgDocument
  3
AcMechDwgViewMgmt
 90
     1024
280
     0
281
     0
  0
CLASS
  1
AM_DWG_SHEET
  2
AcDmSheet
  3
AcMechDwgViewMgmt
 90
     1024
280
     0
281
     0
  0
CLASS
  1
AM_VIEWDIMPARMAP
  2
AcDmViewDimParMap
  3
AcMechDwgViewMgmt
 90
     1024
280
     0
281
     0
  0
CLASS
  1
ACIMREALSYSVAR
  2
AcImRealSysVar
  3
AcMeServices
 90
     1024
280
     0
281
     0
  0
CLASS
  1
AM_DWGMGR_NAME
  2
AcDmDwgMgrName
  3
AcMechDwgViewMgmt
 90
     1024
280
     0
281
     0
  0
CLASS
  1
ACME_DATABASE
  2
AcMeDbDatabase
  3
AcMeServices
 90
     1024
280
     0
281
     0
  0
CLASS
  1
ACRFINSADJUSTERMGR
  2
AcRfInsAdjusterMgr
  3
AcMeServices
 90
     1024
280
     0
281
     0
  0
CLASS
  1
ACGREFACADMASTER
  2
AcGrefacadMaster
  3
AcGrefServices
 90
     1024
280
     0
281
     0
  0
CLASS
  1
AMDTMENUSTATEMGR
  2
AmdtMenuStateMgr
  3
McadcomServices
 90
     1024
280
     0
281
     0
  0
CLASS
  1
AMDTMCOMMENUSTATE
  2
AmdtMcomMenuState
  3
McadcomServices
 90
     1024
280
     0
281
     0
  0
CLASS
  1
AMIMASTER
  2
AmiMaster
  3
AmiServices
 90
     1024
280
     0
281
     0
  0
CLASS
  1
MAPIAMMOUDLE
  2
MApiAmModule
  3
MApiAmServices
 90
     1024
280
     0
281
     0
  0
CLASS
  1
ACIMSTRSYSVAR
  2
AcImStrSysVar
  3
AcMeServices
 90
     1024
280
     0
281
     0
  0
CLASS
  1
AMDTADMENUSTATE
  2
AmdtAdMenuState
  3
DesignerServices
 90
     1024
280
     0
281
     0
  0
CLASS
  1
ADAPPL
  2
AcAdAppl
  3
DesignerServices
 90
     1024
280
     0
281
     0
  0
CLASS
  1
DEPMGR
  2
AcAdDepMgr
  3
DesignerServices
 90
     1024
280
     0
281
     0
  0
CLASS
  1
PARAMMGR
  2
AcAdParamMgr
  3
DesignerServices
 90
     1024
280
     0
281
     0
  0
CLASS
  1
PARAMSCOPE
  2
AcAdParamScope
  3
DesignerServices
 90
     1024
280
     0
281
     0
  0
CLASS
  1
NAMEDAPPL
  2
AcAdNamedAppl
  3
DesignerServices
 90
     1024
280
     0
281
     0
  0
CLASS
  1
AMDTDMMENUSTATE
  2
AmdtDmMenuState
  3
AcMechDwgViewMgmt
 90
     1024
280
     0
281
     0
  0
CLASS
  1
AMDTAMMENUSTATE
  2
AmdtAmMenuState
  3
DesignerAssemblies
 90
     1024
280
     0
281
     0
  0
CLASS
  1
ACAMPROJECT
  2
AcAmProject
  3
DesignerAssemblies
 90
     1024
280
     0
281
     0
  0
CLASS
  1
ACAMGRCOMPDEF
  2
AcAmGrCompDef
  3
DesignerAssemblies
 90
     1024
280
     0
281
     0
  0
CLASS
  1
ACCMCONTEXT
  2
AcCmContext
  3
DesignerAssemblies
 90
     1024
280
     0
281
     0
  0
CLASS
  1
ACAMCOMPDEF
  2
AcAmCompDef
  3
DesignerAssemblies
 90
     1024
280
     0
281
     0
  0
CLASS
  1
ACAMCOMPDEFMGR
  2
AcAmCompDefMgr
  3
DesignerAssemblies
 90
     1024
280
     0
281
     0
  0
CLASS
  1
AMCONTEXTMGR
  2
AcAmContextMgr
  3
DesignerAssemblies
 90
     1024
280
     0
281
     0
  0
CLASS
  1
ACAMCONTEXTMODELER
  2
AcAmContextModeler
  3
DesignerAssemblies
 90
     1024
280
     0
281
     0
  0
CLASS
  1
ACMDATADICTIONARY
  2
AcmDataDictionary
  3
"AcmSymBB|Product Description: AutoCAD Mechanical|Company: Autodesk, Inc."
 90
     1024
280
     0
281
     0
  0
CLASS
  1
ACMSTANDARDISO
  2
AcmStandardISO
  3
"Amdt_StdImp|Product Description: AutoCAD Mechanical|Company: Autodesk, Inc."
 90
     1024
280
     0
281
     0
  0
CLASS
  1
AMGOBJPROPCFG
  2
AmgObjPropCfg
  3
"AmgLay|Product Description: AutoCAD Mechanical|Company: Autodesk, Inc."
 90
     1025
280
     0
281
     0
  0
CLASS
  1
AMDTEDGESTANDARDISO13715
  2
AmdtEdgeStdISO13715
  3
"Amdt_StdImp|Product Description: AutoCAD Mechanical|Company: Autodesk, Inc."
 90
     1024
280
     0
281
     0
  0
CLASS
  1
ACMSURFSTANDARDISO2002
  2
AcmSurfTextStdISO2002
  3
"Amdt_StdImp|Product Description: AutoCAD Mechanical|Company: Autodesk, Inc."
 90
     1024
280
     0
281
     0
  0
CLASS
  1
ACMFCFSTANDARDISO
  2
AcmFCFStdISO
  3
"Amdt_StdImp|Product Description: AutoCAD Mechanical|Company: Autodesk, Inc."
 90
     1024
280
     0
281
     0
  0
CLASS
  1
ACMWELDSTANDARDISO
  2
AcmWeldingStdISO
  3
"Amdt_StdImp|Product Description: AutoCAD Mechanical|Company: Autodesk, Inc."
 90
     1024
280
     0
281
     0
  0
CLASS
  1
ACMIDSTANDARDISO
  2
AcmIdStdISO
  3
"Amdt_StdImp|Product Description: AutoCAD Mechanical|Company: Autodesk, Inc."
 90
     1024
280
     0
281
     0
  0
CLASS
  1
ACMDATUMSTANDARDISO
  2
AcmDatumStdISO
  3
"Amdt_StdImp|Product Description: AutoCAD Mechanical|Company: Autodesk, Inc."
 90
     1024
280
     0
281
     0
  0
CLASS
  1
ACMBOMSTANDARDISO
  2
AcmBOMStdISO
  3
"Amdt_StdImp|Product Description: AutoCAD Mechanical|Company: Autodesk, Inc."
 90
     1024
280
     0
281
     0
  0
CLASS
  1
ACMDETAILSTANDARDISO
  2
AmdtDetailSymStdISO
  3
"Amdt_StdImp|Product Description: AutoCAD Mechanical|Company: Autodesk, Inc."
 90
     1024
280
     0
281
     0
  0
CLASS
  1
ACMSECTIONSTANDARDISO2001
  2
AmdtSectionSymStdISO2001
  3
"Amdt_StdImp|Product Description: AutoCAD Mechanical|Company: Autodesk, Inc."
 90
     1024
280
     0
281
     0
  0
CLASS
  1
ACMCENTERLINESTANDARDISO
  2
AmdtCenterLineStdISO
  3
"Amdt_StdImp|Product Description: AutoCAD Mechanical|Company: Autodesk, Inc."
 90
     1024
280
     0
281
     0
  0
CLASS
  1
ACMTHREADLINESTANDARDISO
  2
AmdtThreadLineStdISO
  3
"Amdt_StdImp|Product Description: AutoCAD Mechanical|Company: Autodesk, Inc."
 90
     1024
280
     0
281
     0
  0
CLASS
  1
ACMNOTESTANDARDISO
  2
AmdtNoteStdISO
  3
"Amdt_StdImp|Product Description: AutoCAD Mechanical|Company: Autodesk, Inc."
 90
     1024
280
     0
281
     0
  0
CLASS
  1
ACMTAPERSTANDARDISO
  2
AcmTaperStdISO
  3
"Amdt_StdImp|Product Description: AutoCAD Mechanical|Company: Autodesk, Inc."
 90
     1024
280
     0
281
     0
  0
CLASS
  1
ACMANOOTATIONVIEWSTANDARDISO
  2
AmdtAnViewStdISO
  3
"Amdt_StdImp|Product Description: AutoCAD Mechanical|Company: Autodesk, Inc."
 90
     1024
280
     0
281
     0
  0
CLASS
  1
AMDTNOTETEMPLATEDB
  2
AmdtNoteTemplateDB
  3
AcmSymBB|Product Description: AutoCAD Mechanical|Company: Autodesk, Inc.
 90
     1024
280
     0
281
     0
  0
CLASS
  1
ACAMGLAYSTD
  2
AcAmgLayStd
  3
"AmgLay|Product Description: AutoCAD Mechanical|Company: Autodesk, Inc."
 90
     1024
280
     0
281
     0
  0
CLASS
  1
ACAMGDIMSTD
  2
AcAmgDimStd
  3
"AmgDim|Product Description: AutoCAD Mechanical|Company: Autodesk, Inc."
 90
     1024
280
     0
281
     0
  0
CLASS
  1
ACAMGHOLECHARTSTDISO
  2
AcAmgHoleChartStdISO
  3
AmgDim|Product Description: AutoCAD Mechanical|Company: Autodesk, Inc.
 90
     1024
280
     0
281
     0
  0
CLASS
  1
ACAMGTITLESTD
  2
AcAmgTitleStd
  3
"AmgTitle|Product Description: AutoCAD Mechanical|Company: Autodesk, Inc."
 90
     4095
280
     0
281
     0
  0
CLASS
  1
CATALOGSTATE
  2
AcAmCatalogState
  3
DesignerAssemblies
 90
     1024
280
     0
281
     0
  0
CLASS
  1
ACAMGRCOMPDEFSET
  2
AcAmGrCompDefSet
  3
DesignerAssemblies
 90
     1024
280
     0
281
     0
  0
CLASS
  1
AMDTBROWSERDBTAB
  2
AmdtBrowserDbTab
  3
McadcomServices
 90
     1024
280
     0
281
     0
  0
CLASS
  1
CBROWSERAPPOBJECT
  2
CBrowserAppObject
  3
McadcomServices
 90
     1024
280
     0
281
     0
  0
CLASS
  1
DM_PLACEHOLDER
  2
AcDmSelsetPlaceholder
  3
AcMechDwgViewMgmt
 90
     1024
280
     0
281
     0
  0
CLASS
  1
DIMASSOC
  2
AcDbDimAssoc
  3
"AcDbDimAssoc|Product Desc:     AcDim ARX App For Dimension|Company:          Autodesk, Inc.|WEB Address:      www.autodesk.com"
 90
    32768
280
     0
281
     0
  0
CLASS
  1
ACAMGFILTERDAT
  2
AcAmgFilterDat
  3
"AcadM|Product Description: AutoCAD Mechanical|Company: Autodesk, Inc."
 90
    33792
280
     0
281
     0
  0
CLASS
  1
DICTIONARYVAR
  2
AcDbDictionaryVar
  3
ObjectDBX Classes
 90
        0
280
     0
281
     0
  0
CLASS
  1
CELLSTYLEMAP
  2
AcDbCellStyleMap
  3
ObjectDBX Classes
 90
     1152
280
     0
281
     0
  0
CLASS
  1
ACDBPLACEHOLDER
  2
AcDbPlaceHolder
  3
ObjectDBX Classes
 90
        0
280
     0
281
     0
  0
CLASS
  1
LAYOUT
  2
AcDbLayout
  3
ObjectDBX Classes
 90
        0
280
     0
281
     0
  0
CLASS
  1
ACMSTANDARDANSI
  2
AcmStandardANSI
  3
"Amdt_StdImp|Product Description: AutoCAD Mechanical|Company: Autodesk, Inc."
 90
    33792
280
     0
281
     0
  0
CLASS
  1
ACMSURFSTANDARDANSI
  2
AcmSurfTextStdANSI
  3
"Amdt_StdImp|Product Description: AutoCAD Mechanical|Company: Autodesk, Inc."
 90
    33792
280
     0
281
     0
  0
CLASS
  1
ACMFCFSTANDARDANSI
  2
AcmFCFStdANSI
  3
"Amdt_StdImp|Product Description: AutoCAD Mechanical|Company: Autodesk, Inc."
 90
    33792
280
     0
281
     0
  0
CLASS
  1
ACMWELDSTANDARDANSI
  2
AcmWeldingStdANSI
  3
"Amdt_StdImp|Product Description: AutoCAD Mechanical|Company: Autodesk, Inc."
 90
    33792
280
     0
281
     0
  0
CLASS
  1
ACMIDSTANDARDANSI
  2
AcmIdStdANSI
  3
"Amdt_StdImp|Product Description: AutoCAD Mechanical|Company: Autodesk, Inc."
 90
    33792
280
     0
281
     0
  0
CLASS
  1
ACMDATUMSTANDARDANSI
  2
AcmDatumStdANSI
  3
"Amdt_StdImp|Product Description: AutoCAD Mechanical|Company: Autodesk, Inc."
 90
    33792
280
     0
281
     0
  0
CLASS
  1
ACMBOMSTANDARDANSI
  2
AcmBOMStdANSI
  3
"Amdt_StdImp|Product Description: AutoCAD Mechanical|Company: Autodesk, Inc."
 90
    33792
280
     0
281
     0
  0
CLASS
  1
ACMDETAILSTANDARDANSI
  2
AmdtDetailSymStdANSI
  3
"Amdt_StdImp|Product Description: AutoCAD Mechanical|Company: Autodesk, Inc."
 90
    33792
280
     0
281
     0
  0
CLASS
  1
ACMSECTIONSTANDARDANSI
  2
AmdtSectionSymStdANSI
  3
"Amdt_StdImp|Product Description: AutoCAD Mechanical|Company: Autodesk, Inc."
 90
    33792
280
     0
281
     0
  0
CLASS
  1
ACMCENTERLINESTANDARDANSI
  2
AmdtCenterLineStdANSI
  3
"Amdt_StdImp|Product Description: AutoCAD Mechanical|Company: Autodesk, Inc."
 90
    33792
280
     0
281
     0
  0
CLASS
  1
ACMTHREADLINESTANDARDANSI
  2
AmdtThreadLineStdANSI
  3
"Amdt_StdImp|Product Description: AutoCAD Mechanical|Company: Autodesk, Inc."
 90
    33792
280
     0
281
     0
  0
CLASS
  1
ACMNOTESTANDARDANSI
  2
AmdtNoteStdANSI
  3
"Amdt_StdImp|Product Description: AutoCAD Mechanical|Company: Autodesk, Inc."
 90
    33792
280
     0
281
     0
  0
CLASS
  1
ACMTAPERSTANDARDANSI
  2
AcmTaperStdANSI
  3
"Amdt_StdImp|Product Description: AutoCAD Mechanical|Company: Autodesk, Inc."
 90
    33792
280
     0
281
     0
  0
CLASS
  1
ACMANOOTATIONVIEWSTANDARDANSI
  2
AmdtAnViewStdANSI
  3
"Amdt_StdImp|Product Description: AutoCAD Mechanical|Company: Autodesk, Inc."
 90
    33792
280
     0
281
     0
  0
CLASS
  1
ACAMGHOLECHARTSTDANSI
  2
AcAmgHoleChartStdANSI
  3
AmgDim|Product Description: AutoCAD Mechanical|Company: Autodesk, Inc.
 90
    33792
280
     0
281
     0
  0
ENDSEC
  0
SECTION
  2
TABLES
  0
TABLE
  2
VPORT
  5
8
330
0
100
AcDbSymbolTable
 70
     1
  0
VPORT
  5
5F
330
8
100
AcDbSymbolTableRecord
100
AcDbViewportTableRecord
  2
*Active
 70
     0
 10
0.0
 20
0.0
 11
1.0
 21
1.0
 12
232.2664118721957
 22
104.4222623078911
 13
0.0
 23
0.0
 14
2.5
 24
2.5
 15
10.0
 25
10.0
 16
0.0
 26
0.0
 36
1.0
 17
0.0
 27
0.0
 37
0.0
 40
153.5869888648574
 41
2.184210526315789
 42
50.0
 43
0.0
 44
0.0
 50
0.0
 51
0.0
 71
     0
 72
  1000
 73
     1
 74
     3
 75
     0
 76
     0
 77
     0
 78
     0
281
     0
 65
     0
110
0.0
120
0.0
130
0.0
111
1.0
121
0.0
131
0.0
112
0.0
122
1.0
132
0.0
 79
     0
146
0.0
  0
ENDTAB
  0
TABLE
  2
LTYPE
  5
5
330
0
100
AcDbSymbolTable
 70
    20
  0
LTYPE
  5
63
330
5
100
AcDbSymbolTableRecord
100
AcDbLinetypeTableRecord
  2
ByBlock
 70
     0
  3

 72
    65
 73
     0
 40
0.0
  0
LTYPE
  5
64
330
5
100
AcDbSymbolTableRecord
100
AcDbLinetypeTableRecord
  2
ByLayer
 70
     0
  3

 72
    65
 73
     0
 40
0.0
  0
LTYPE
  5
65
330
5
100
AcDbSymbolTableRecord
100
AcDbLinetypeTableRecord
  2
Continuous
 70
     0
  3
Solid line
 72
    65
 73
     0
 40
0.0
  0
LTYPE
  5
B3
330
5
100
AcDbSymbolTableRecord
100
AcDbLinetypeTableRecord
  2
HIDDEN
 70
     0
  3
Hidden __ __ __ __ __ __ __ __ __ __ __ __ __ _
 72
    65
 73
     2
 40
9.524999999999996
 49
6.349999999999997
 74
     0
 49
-3.174999999999998
 74
     0
  0
LTYPE
  5
B4
330
5
100
AcDbSymbolTableRecord
100
AcDbLinetypeTableRecord
  2
PHANTOM2
 70
     0
  3
Phantom (.5x) ___ _ _ ___ _ _ ___ _ _ ___ _ _
 72
    65
 73
     6
 40
31.75
 49
15.875
 74
     0
 49
-3.174999999999998
 74
     0
 49
3.174999999999998
 74
     0
 49
-3.174999999999998
 74
     0
 49
3.174999999999998
 74
     0
 49
-3.174999999999998
 74
     0
  0
LTYPE
  5
B5
330
5
100
AcDbSymbolTableRecord
100
AcDbLinetypeTableRecord
  2
CENTER
 70
     0
  3
Center ____ _ ____ _ ____ _ ____ _ ____ _ ____
 72
    65
 73
     4
 40
50.8
 49
31.75
 74
     0
 49
-6.349999999999997
 74
     0
 49
6.349999999999997
 74
     0
 49
-6.349999999999997
 74
     0
  0
LTYPE
  5
F1
330
5
100
AcDbSymbolTableRecord
100
AcDbLinetypeTableRecord
  2
ACISOWELD
 70
     0
  3
_ _ _ _ _
 72
    65
 73
     2
 40
2.0
 49
2.0
 74
     0
 49
-1.0
 74
     0
  0
LTYPE
  5
F2
330
5
100
AcDbSymbolTableRecord
100
AcDbLinetypeTableRecord
  2
ACISOTGB
 70
     0
  3
__ . . __ . .
 72
    65
 73
     6
 40
9.0
 49
4.0
 74
     0
 49
-1.0
 74
     0
 49
1.0
 74
     0
 49
-1.0
 74
     0
 49
1.0
 74
     0
 49
-1.0
 74
     0
  0
LTYPE
  5
F3
330
5
100
AcDbSymbolTableRecord
100
AcDbLinetypeTableRecord
  2
ACISOTGL
 70
     0
  3
_ _ _ _ _
 72
    65
 73
     2
 40
3.0
 49
2.0
 74
     0
 49
-1.0
 74
     0
  0
LTYPE
  5
214
330
5
100
AcDbSymbolTableRecord
100
AcDbLinetypeTableRecord
  2
AI9-LType30
 70
     0
  3
Illustrator Dash Style No.30
 72
    65
 73
     4
 40
2.602935502264228
 49
0.6507338755660587
 74
     0
 49
-0.6507338755660587
 74
     0
 49
0.6507338755660587
 74
     0
 49
-0.6507338755660587
 74
     0
  0
LTYPE
  5
215
330
5
100
AcDbSymbolTableRecord
100
AcDbLinetypeTableRecord
  2
AI9-LType31
 70
     0
  3
Illustrator Dash Style No.31
 72
    65
 73
     4
 40
2.874010014533995
 49
0.7185025036334995
 74
     0
 49
-0.7185025036334995
 74
     0
 49
0.7185025036334995
 74
     0
 49
-0.7185025036334995
 74
     0
  0
LTYPE
  5
216
330
5
100
AcDbSymbolTableRecord
100
AcDbLinetypeTableRecord
  2
AI9-LType32
 70
     0
  3
Illustrator Dash Style No.32
 72
    65
 73
     4
 40
2.874010014533995
 49
0.7185025036334995
 74
     0
 49
-0.7185025036334995
 74
     0
 49
0.7185025036334995
 74
     0
 49
-0.7185025036334995
 74
     0
  0
LTYPE
  5
217
330
5
100
AcDbSymbolTableRecord
100
AcDbLinetypeTableRecord
  2
AI9-LType33
 70
     0
  3
Illustrator Dash Style No.33
 72
    65
 73
     4
 40
2.874010014533995
 49
0.7185025036334995
 74
     0
 49
-0.7185025036334995
 74
     0
 49
0.7185025036334995
 74
     0
 49
-0.7185025036334995
 74
     0
  0
LTYPE
  5
218
330
5
100
AcDbSymbolTableRecord
100
AcDbLinetypeTableRecord
  2
AI9-LType34
 70
     0
  3
Illustrator Dash Style No.34
 72
    65
 73
     4
 40
2.874010014533995
 49
0.7185025036334995
 74
     0
 49
-0.7185025036334995
 74
     0
 49
0.7185025036334995
 74
     0
 49
-0.7185025036334995
 74
     0
  0
LTYPE
  5
219
330
5
100
AcDbSymbolTableRecord
100
AcDbLinetypeTableRecord
  2
AI9-LType35
 70
     0
  3
Illustrator Dash Style No.35
 72
    65
 73
     4
 40
2.874010014533995
 49
0.7185025036334995
 74
     0
 49
-0.7185025036334995
 74
     0
 49
0.7185025036334995
 74
     0
 49
-0.7185025036334995
 74
     0
  0
LTYPE
  5
21A
330
5
100
AcDbSymbolTableRecord
100
AcDbLinetypeTableRecord
  2
AI9-LType36
 70
     0
  3
Illustrator Dash Style No.36
 72
    65
 73
     4
 40
2.874010014533995
 49
0.7185025036334995
 74
     0
 49
-0.7185025036334995
 74
     0
 49
0.7185025036334995
 74
     0
 49
-0.7185025036334995
 74
     0
  0
LTYPE
  5
21B
330
5
100
AcDbSymbolTableRecord
100
AcDbLinetypeTableRecord
  2
AI9-LType37
 70
     0
  3
Illustrator Dash Style No.37
 72
    65
 73
     4
 40
2.874010014533995
 49
0.7185025036334995
 74
     0
 49
-0.7185025036334995
 74
     0
 49
0.7185025036334995
 74
     0
 49
-0.7185025036334995
 74
     0
  0
LTYPE
  5
21C
330
5
100
AcDbSymbolTableRecord
100
AcDbLinetypeTableRecord
  2
AI9-LType38
 70
     0
  3
Illustrator Dash Style No.38
 72
    65
 73
     4
 40
2.874010014533995
 49
0.7185025036334995
 74
     0
 49
-0.7185025036334995
 74
     0
 49
0.7185025036334995
 74
     0
 49
-0.7185025036334995
 74
     0
  0
LTYPE
  5
942
330
5
100
AcDbSymbolTableRecord
100
AcDbLinetypeTableRecord
  2
CENTER2
 70
     0
  3
Center (.5x) ___ _ ___ _ ___ _ ___ _ ___ _ ___
 72
    65
 73
     4
 40
1.125
 49
0.75
 74
     0
 49
-0.125
 74
     0
 49
0.125
 74
     0
 49
-0.125
 74
     0
  0
LTYPE
  5
943
330
5
100
AcDbSymbolTableRecord
100
AcDbLinetypeTableRecord
  2
HIDDEN2
 70
     0
  3
Hidden (.5x) _ _ _ _ _ _ _ _ _ _ _ _ _ _ _ _ _
 72
    65
 73
     2
 40
0.1875
 49
0.125
 74
     0
 49
-0.0625
 74
     0
  0
LTYPE
  5
944
330
5
100
AcDbSymbolTableRecord
100
AcDbLinetypeTableRecord
  2
ACANSTGB
 70
     0
  3
__ . . __ . .
 72
    65
 73
     6
 40
0.35433070866
 49
0.15748031496
 74
     0
 49
-0.03937007874
 74
     0
 49
0.03937007874
 74
     0
 49
-0.03937007874
 74
     0
 49
0.03937007874
 74
     0
 49
-0.03937007874
 74
     0
  0
LTYPE
  5
945
330
5
100
AcDbSymbolTableRecord
100
AcDbLinetypeTableRecord
  2
ACANSTGL
 70
     0
  3
_ _ _ _ _
 72
    65
 73
     2
 40
0.11811023622
 49
0.07874015748
 74
     0
 49
-0.03937007874
 74
     0
  0
ENDTAB
  0
TABLE
  2
LAYER
  5
2
330
0
100
AcDbSymbolTable
 70
     8
  0
LAYER
  5
5C
102
{ACAD_XDICTIONARY
360
78D
102
}
330
2
100
AcDbSymbolTableRecord
100
AcDbLayerTableRecord
  2
0
 70
     0
 62
     7
  6
Continuous
370
    -3
390
F
  0
LAYER
  5
21D
102
{ACAD_XDICTIONARY
360
21E
102
}
330
2
100
AcDbSymbolTableRecord
100
AcDbLayerTableRecord
  2
外形線
 70
     0
 62
     7
  6
Continuous
370
    -3
390
F
  0
LAYER
  5
21F
330
2
100
AcDbSymbolTableRecord
100
AcDbLayerTableRecord
  2
DEFPOINTS
 70
     0
 62
     7
  6
Continuous
290
     0
370
    -3
390
F
  0
LAYER
  5
220
102
{ACAD_XDICTIONARY
360
221
102
}
330
2
100
AcDbSymbolTableRecord
100
AcDbLayerTableRecord
  2
枠
 70
     0
 62
   130
  6
CENTER
370
    -3
390
F
  0
LAYER
  5
222
102
{ACAD_XDICTIONARY
360
223
102
}
330
2
100
AcDbSymbolTableRecord
100
AcDbLayerTableRecord
  2
AM_5
 70
     0
 62
     3
  6
Continuous
370
    25
390
F
  0
LAYER
  5
224
102
{ACAD_XDICTIONARY
360
225
102
}
330
2
100
AcDbSymbolTableRecord
100
AcDbLayerTableRecord
  2
レイヤー_1_0
 70
     0
 62
   160
  6
Continuous
370
    -3
390
F
  0
LAYER
  5
226
102
{ACAD_XDICTIONARY
360
793
102
}
330
2
100
AcDbSymbolTableRecord
100
AcDbLayerTableRecord
  2
レイヤー_1
 70
     0
 62
   160
  6
Continuous
370
    -3
390
F
  0
LAYER
  5
13CD
330
2
100
AcDbSymbolTableRecord
100
AcDbLayerTableRecord
  2
レイヤ__1
 70
     0
 62
   160
  6
Continuous
370
    -3
390
F
  0
ENDTAB
  0
TABLE
  2
STYLE
  5
3
330
0
100
AcDbSymbolTable
 70
    12
  0
STYLE
  5
5D
330
3
100
AcDbSymbolTableRecord
100
AcDbTextStyleTableRecord
  2
STANDARD
 70
     0
 40
0.0
 41
1.0
 50
0.0
 71
     0
 42
2.5
  3
ISOCP.SHX
  4
EXTFONT.SHX
  0
STYLE
  5
62
330
3
100
AcDbSymbolTableRecord
100
AcDbTextStyleTableRecord
  2
Annotative
 70
     0
 40
0.0
 41
1.0
 50
0.0
 71
     0
 42
0.2
  3

  4

1001
AcadAnnotative
1000
AnnotativeData
1002
{
1070
     1
1070
     1
1002
}
  0
STYLE
  5
E1
330
3
100
AcDbSymbolTableRecord
100
AcDbTextStyleTableRecord
  2
ACISOTS
 70
     0
 40
1.0
 41
1.0
 50
0.0
 71
     0
 42
2.5
  3
isocp.shx
  4
extfont.shx
  0
STYLE
  5
F0
330
3
100
AcDbSymbolTableRecord
100
AcDbTextStyleTableRecord
  2
ACISOGDT
 70
     0
 40
0.0
 41
1.0
 50
0.0
 71
     0
 42
2.5
  3
amgdt.shx
  4

  0
STYLE
  5
115
330
3
100
AcDbSymbolTableRecord
100
AcDbTextStyleTableRecord
  2
USER1
 70
     0
 40
0.0
 41
1.0
 50
0.0
 71
     0
 42
2.5
  3
TXT.SHX
  4

  0
STYLE
  5
116
330
3
100
AcDbSymbolTableRecord
100
AcDbTextStyleTableRecord
  2
USER2
 70
     0
 40
0.0
 41
1.0
 50
0.0
 71
     0
 42
2.5
  3
SIMPLEX.SHX
  4

  0
STYLE
  5
117
330
3
100
AcDbSymbolTableRecord
100
AcDbTextStyleTableRecord
  2
USER3
 70
     0
 40
0.0
 41
1.0
 50
0.0
 71
     0
 42
2.5
  3
ITALIC.SHX
  4

  0
STYLE
  5
227
330
3
100
AcDbSymbolTableRecord
100
AcDbTextStyleTableRecord
  2
KANJISTD
 70
     0
 40
0.0
 41
1.0
 50
0.0
 71
     0
 42
0.0
  3
txt
  4
extfont
  0
STYLE
  5
946
330
3
100
AcDbSymbolTableRecord
100
AcDbTextStyleTableRecord
  2
STD
 70
     0
 40
0.0
 41
1.0
 50
0.0
 71
     0
 42
0.0
  3
txt
  4

  0
STYLE
  5
947
330
3
100
AcDbSymbolTableRecord
100
AcDbTextStyleTableRecord
  2
ACANSTS
 70
     0
 40
1.0
 41
1.0
 50
0.0
 71
     0
 42
0.2
  3
romans.shx
  4
extfont.shx
  0
STYLE
  5
948
330
3
100
AcDbSymbolTableRecord
100
AcDbTextStyleTableRecord
  2
ACANSGDT
 70
     0
 40
0.0
 41
1.0
 50
0.0
 71
     0
 42
0.2
  3
amgdt.shx
  4

  0
STYLE
  5
13CE
330
3
100
AcDbSymbolTableRecord
100
AcDbTextStyleTableRecord
  2
FONT_0
 70
     0
 40
0.0
 41
1.0
 50
0.0
 71
     0
 42
3.2
  3
txt
  4
BIGFONT
  0
ENDTAB
  0
TABLE
  2
VIEW
  5
6
330
0
100
AcDbSymbolTable
 70
     0
  0
ENDTAB
  0
TABLE
  2
UCS
  5
7
330
0
100
AcDbSymbolTable
 70
     0
  0
ENDTAB
  0
TABLE
  2
APPID
  5
9
330
0
100
AcDbSymbolTable
 70
    16
  0
APPID
  5
5E
330
9
100
AcDbSymbolTableRecord
100
AcDbRegAppTableRecord
  2
ACAD
 70
     0
  0
APPID
  5
66
330
9
100
AcDbSymbolTableRecord
100
AcDbRegAppTableRecord
  2
AcadAnnotative
 70
     0
  0
APPID
  5
70
330
9
100
AcDbSymbolTableRecord
100
AcDbRegAppTableRecord
  2
ACAD_MLEADERVER
 70
     0
  0
APPID
  5
84
330
9
100
AcDbSymbolTableRecord
100
AcDbRegAppTableRecord
  2
MCAD_NO_VIS
 70
     0
  0
APPID
  5
85
330
9
100
AcDbSymbolTableRecord
100
AcDbRegAppTableRecord
  2
ACAD_TEMP_GRAPHIC
 70
     0
  0
APPID
  5
B7
330
9
100
AcDbSymbolTableRecord
100
AcDbRegAppTableRecord
  2
AD_DRAW
 70
     0
  0
APPID
  5
BA
330
9
100
AcDbSymbolTableRecord
100
AcDbRegAppTableRecord
  2
ACATTRIBSERVICES
 70
     0
  0
APPID
  5
DB
330
9
100
AcDbSymbolTableRecord
100
AcDbRegAppTableRecord
  2
DESIGNERASSEMBLIES
 70
     0
  0
APPID
  5
10F
330
9
100
AcDbSymbolTableRecord
100
AcDbRegAppTableRecord
  2
ACADM_DIM_EDIT
 70
     0
  0
APPID
  5
110
330
9
100
AcDbSymbolTableRecord
100
AcDbRegAppTableRecord
  2
AMDT_DM_ADJ
 70
     0
  0
APPID
  5
229
330
9
100
AcDbSymbolTableRecord
100
AcDbRegAppTableRecord
  2
ACAD_DSTYLE_DIMINSPECT
 70
     0
  0
APPID
  5
22A
330
9
100
AcDbSymbolTableRecord
100
AcDbRegAppTableRecord
  2
ACAD_DSTYLE_DIMRADIAL_EXTENSION
 70
     0
  0
APPID
  5
72C
330
9
100
AcDbSymbolTableRecord
100
AcDbRegAppTableRecord
  2
GENIUS_GENDTOL_13
 70
     0
  0
APPID
  5
7A8
330
9
100
AcDbSymbolTableRecord
100
AcDbRegAppTableRecord
  2
ACAD_DSTYLE_DIMJOGGED_JOGANGLE_SYMBOL
 70
     0
  0
APPID
  5
7B0
330
9
100
AcDbSymbolTableRecord
100
AcDbRegAppTableRecord
  2
ACAD_DSTYLE_DIMARC_LENGTH_SYMBOL
 70
     0
  0
APPID
  5
950
330
9
100
AcDbSymbolTableRecord
100
AcDbRegAppTableRecord
  2
DCO15
 70
     0
  0
ENDTAB
  0
TABLE
  2
DIMSTYLE
  5
A
330
0
100
AcDbSymbolTable
 70
    17
100
AcDbDimStyleTable
 71
     1
340
FF
  0
DIMSTYLE
105
60
330
A
100
AcDbSymbolTableRecord
100
AcDbDimStyleTableRecord
  2
ISO-25
 70
     0
 41
2.5
 42
0.625
 43
3.75
 44
1.25
 73
     0
 74
     0
 77
     1
 78
     8
140
2.5
141
2.5
143
0.03937007874016
147
0.625
171
     3
172
     1
271
     2
272
     2
274
     3
283
     0
284
     8
340
5D
1001
ACAD_DSTYLE_DIMJOGGED_JOGANGLE_SYMBOL
1070
   384
1040
1.570796326794896
  0
DIMSTYLE
105
61
330
A
100
AcDbSymbolTableRecord
100
AcDbDimStyleTableRecord
  2
Annotative
 70
     0
340
5D
1001
AcadAnnotative
1000
AnnotativeData
1002
{
1070
     1
1070
     1
1002
}
  0
DIMSTYLE
105
FF
330
A
100
AcDbSymbolTableRecord
100
AcDbDimStyleTableRecord
  2
AM_ISO
 70
     0
  4
"
 41
2.5
 42
1.0
 43
10.0
 44
1.0
 47
0.1
 48
0.1
 73
     0
 74
     0
 77
     1
 78
     8
 79
     2
140
3.5
141
0.0
143
0.0393701
146
0.71
147
1.5
172
     1
176
   256
177
   256
178
     2
271
     2
272
     3
274
     4
283
     0
284
     8
340
5D
371
    -1
372
    -1
1001
ACAD_DSTYLE_DIMARC_LENGTH_SYMBOL
1070
   379
1070
     1
  0
DIMSTYLE
105
100
330
A
100
AcDbSymbolTableRecord
100
AcDbDimStyleTableRecord
  2
AM_ISO$3
 70
     0
  4
"
 41
2.5
 42
1.0
 43
10.0
 44
1.0
 47
0.1
 48
0.1
 73
     0
 77
     1
 78
     8
 79
     2
140
3.5
141
0.0
143
0.0393701
146
0.71
147
1.5
176
   256
177
   256
178
     2
271
     2
272
     3
274
     4
283
     0
284
     8
288
     1
289
     0
340
5D
371
    -1
372
    -1
1001
ACAD_DSTYLE_DIMARC_LENGTH_SYMBOL
1070
   379
1070
     1
  0
DIMSTYLE
105
101
330
A
100
AcDbSymbolTableRecord
100
AcDbDimStyleTableRecord
  2
AM_ISO$4
 70
     0
  4
"
 41
2.5
 42
1.0
 43
10.0
 44
1.0
 47
0.1
 48
0.1
 73
     0
 77
     1
 78
     8
 79
     2
140
3.5
141
0.0
143
0.0393701
146
0.71
147
1.5
176
   256
177
   256
178
     2
271
     2
272
     3
274
     4
283
     0
284
     8
288
     1
289
     0
340
5D
371
    -1
372
    -1
1001
ACAD_DSTYLE_DIMARC_LENGTH_SYMBOL
1070
   379
1070
     1
  0
DIMSTYLE
105
102
330
A
100
AcDbSymbolTableRecord
100
AcDbDimStyleTableRecord
  2
AM_ISO$6
 70
     0
  4
"
 41
2.5
 42
1.0
 43
10.0
 44
1.0
 47
0.1
 48
0.1
 73
     0
 74
     0
 78
     8
 79
     2
140
3.5
141
0.0
143
0.0393701
146
0.71
147
1.5
172
     1
176
   256
177
   256
178
     2
271
     2
272
     3
274
     4
283
     0
284
     8
340
5D
371
    -1
372
    -1
1001
ACAD_DSTYLE_DIMARC_LENGTH_SYMBOL
1070
   379
1070
     1
  0
DIMSTYLE
105
103
330
A
100
AcDbSymbolTableRecord
100
AcDbDimStyleTableRecord
  2
AM_ISO$7
 70
     0
  4
"
 41
2.5
 42
1.0
 43
10.0
 44
1.0
 47
0.1
 48
0.1
 73
     0
 74
     0
 77
     1
 78
     8
 79
     2
140
5.0
141
0.0
143
0.0393701
146
0.71
147
1.5
172
     1
176
   256
177
   256
178
     2
271
     2
272
     3
274
     4
283
     0
284
     8
340
5D
371
    -1
372
    -1
1001
ACAD_DSTYLE_DIMARC_LENGTH_SYMBOL
1070
   379
1070
     1
  0
DIMSTYLE
105
104
330
A
100
AcDbSymbolTableRecord
100
AcDbDimStyleTableRecord
  2
AM_ISO$SF
 70
     0
  4
"
 41
2.5
 42
1.0
 43
10.0
 44
1.0
 47
0.1
 48
0.1
 73
     0
 74
     0
 75
     1
 76
     1
 77
     1
 78
     8
 79
     2
140
3.5
141
0.0
143
0.0393701
146
0.71
147
1.5
172
     1
176
   256
177
   256
178
     2
271
     2
272
     3
274
     4
283
     0
284
     8
340
5D
371
    -1
372
    -1
1001
ACAD_DSTYLE_DIMARC_LENGTH_SYMBOL
1070
   379
1070
     1
  0
DIMSTYLE
105
109
330
A
100
AcDbSymbolTableRecord
100
AcDbDimStyleTableRecord
  2
AM_ISO$SH
 70
     0
  4
"
 41
2.5
 42
1.0
 43
10.0
 44
1.0
 47
0.1
 48
0.1
 73
     0
 74
     0
 75
     1
 76
     1
 77
     1
 78
     8
 79
     2
140
3.5
141
0.0
143
0.0393701
144
2.0
146
0.71
147
1.5
172
     1
173
     1
176
   256
177
   256
178
     2
271
     2
272
     3
274
     4
283
     0
284
     8
340
5D
343
105
371
    -1
372
    -1
1001
ACAD_DSTYLE_DIMARC_LENGTH_SYMBOL
1070
   379
1070
     1
  0
DIMSTYLE
105
228
330
A
100
AcDbSymbolTableRecord
100
AcDbDimStyleTableRecord
  2
AM_ISO$0
 70
     0
  4
"
 41
2.5
 42
1.0
 43
10.0
 44
1.0
 47
0.1
 48
0.1
 73
     0
 74
     0
 77
     1
 78
     8
 79
     2
140
3.5
141
0.0
143
0.0393701
146
0.71
147
1.5
172
     1
176
   256
177
   256
178
     2
271
     2
272
     3
274
     4
283
     0
284
     8
340
5D
371
    -1
372
    -1
1001
ACAD_DSTYLE_DIMARC_LENGTH_SYMBOL
1070
   379
1070
     1
  0
DIMSTYLE
105
949
330
A
100
AcDbSymbolTableRecord
100
AcDbDimStyleTableRecord
  2
Standard
 70
     0
289
     0
340
5D
  0
DIMSTYLE
105
94A
330
A
100
AcDbSymbolTableRecord
100
AcDbDimStyleTableRecord
  2
AM_ANSI
 70
     0
  4
mm
 41
0.1
 42
0.05
 43
0.5
 44
0.1
 47
0.1
 48
0.1
 78
     7
 79
     2
140
0.12
141
0.0
146
0.71
147
0.06
176
   256
177
   256
178
     2
274
     4
284
     7
340
5D
371
    -1
372
    -1
1001
ACAD_DSTYLE_DIMARC_LENGTH_SYMBOL
1070
   379
1070
     1
  0
DIMSTYLE
105
94B
330
A
100
AcDbSymbolTableRecord
100
AcDbDimStyleTableRecord
  2
AM_ANSI$3
 70
     0
  4
mm
 41
0.1
 42
0.05
 43
0.5
 44
0.1
 47
0.1
 48
0.1
 78
     7
 79
     2
140
0.12
141
0.0
146
0.71
147
0.06
176
   256
177
   256
178
     2
274
     4
284
     7
288
     1
289
     0
340
5D
371
    -1
372
    -1
1001
ACAD_DSTYLE_DIMARC_LENGTH_SYMBOL
1070
   379
1070
     1
  0
DIMSTYLE
105
94C
330
A
100
AcDbSymbolTableRecord
100
AcDbDimStyleTableRecord
  2
AM_ANSI$4
 70
     0
  4
mm
 41
0.1
 42
0.05
 43
0.5
 44
0.1
 47
0.1
 48
0.1
 78
     7
 79
     2
140
0.12
141
0.0
146
0.71
147
0.06
176
   256
177
   256
178
     2
274
     4
284
     7
288
     1
289
     0
340
5D
371
    -1
372
    -1
1001
ACAD_DSTYLE_DIMARC_LENGTH_SYMBOL
1070
   379
1070
     1
  0
DIMSTYLE
105
94D
330
A
100
AcDbSymbolTableRecord
100
AcDbDimStyleTableRecord
  2
AM_ANSI$7
 70
     0
  4
mm
 41
0.1
 42
0.05
 43
0.5
 44
0.1
 47
0.1
 48
0.1
 78
     7
 79
     2
140
0.24
141
0.0
146
0.71
147
0.06
176
   256
177
   256
178
     2
274
     4
284
     7
340
5D
371
    -1
372
    -1
1001
ACAD_DSTYLE_DIMARC_LENGTH_SYMBOL
1070
   379
1070
     1
  0
DIMSTYLE
105
94E
330
A
100
AcDbSymbolTableRecord
100
AcDbDimStyleTableRecord
  2
AM_ANSI$SF
 70
     0
  4
mm
 41
0.1
 42
0.05
 43
0.5
 44
0.1
 47
0.1
 48
0.1
 75
     1
 76
     1
 78
     7
 79
     2
140
0.12
141
0.0
146
0.71
147
0.06
176
   256
177
   256
178
     2
274
     4
284
     7
340
5D
371
    -1
372
    -1
1001
ACAD_DSTYLE_DIMARC_LENGTH_SYMBOL
1070
   379
1070
     1
  0
DIMSTYLE
105
94F
330
A
100
AcDbSymbolTableRecord
100
AcDbDimStyleTableRecord
  2
AM_ANSI$SH
 70
     0
  4
mm
 41
0.1
 42
0.05
 43
0.5
 44
0.1
 47
0.1
 48
0.1
 75
     1
 76
     1
 78
     7
 79
     2
140
0.12
141
0.0
146
0.71
147
0.06
173
     1
176
   256
177
   256
178
     2
274
     4
284
     7
340
5D
343
105
371
    -1
372
    -1
1001
ACAD_DSTYLE_DIMARC_LENGTH_SYMBOL
1070
   379
1070
     1
  0
ENDTAB
  0
TABLE
  2
BLOCK_RECORD
  5
1
330
0
100
AcDbSymbolTable
 70
    61
  0
BLOCK_RECORD
  5
75
330
1
100
AcDbSymbolTableRecord
100
AcDbBlockTableRecord
  2
*Model_Space
340
78
  0
BLOCK_RECORD
  5
71
330
1
100
AcDbSymbolTableRecord
100
AcDbBlockTableRecord
  2
*Paper_Space
340
74
  0
BLOCK_RECORD
  5
79
330
1
100
AcDbSymbolTableRecord
100
AcDbBlockTableRecord
  2
*Paper_Space0
340
7C
  0
BLOCK_RECORD
  5
105
330
1
100
AcDbSymbolTableRecord
100
AcDbBlockTableRecord
  2
GENAXEH
340
0
  0
BLOCK_RECORD
  5
119
330
1
100
AcDbSymbolTableRecord
100
AcDbBlockTableRecord
  2
*D2
340
0
  0
BLOCK_RECORD
  5
125
330
1
100
AcDbSymbolTableRecord
100
AcDbBlockTableRecord
  2
*D3
340
0
  0
BLOCK_RECORD
  5
131
330
1
100
AcDbSymbolTableRecord
100
AcDbBlockTableRecord
  2
*D4
340
0
  0
BLOCK_RECORD
  5
13D
330
1
100
AcDbSymbolTableRecord
100
AcDbBlockTableRecord
  2
*D5
340
0
  0
BLOCK_RECORD
  5
149
330
1
100
AcDbSymbolTableRecord
100
AcDbBlockTableRecord
  2
*D6
340
0
  0
BLOCK_RECORD
  5
155
330
1
100
AcDbSymbolTableRecord
100
AcDbBlockTableRecord
  2
*D7
340
0
  0
BLOCK_RECORD
  5
161
330
1
100
AcDbSymbolTableRecord
100
AcDbBlockTableRecord
  2
*D8
340
0
  0
BLOCK_RECORD
  5
16D
330
1
100
AcDbSymbolTableRecord
100
AcDbBlockTableRecord
  2
*D9
340
0
  0
BLOCK_RECORD
  5
179
330
1
100
AcDbSymbolTableRecord
100
AcDbBlockTableRecord
  2
*D10
340
0
  0
BLOCK_RECORD
  5
185
330
1
100
AcDbSymbolTableRecord
100
AcDbBlockTableRecord
  2
*D11
340
0
  0
BLOCK_RECORD
  5
191
330
1
100
AcDbSymbolTableRecord
100
AcDbBlockTableRecord
  2
*D12
340
0
  0
BLOCK_RECORD
  5
19D
330
1
100
AcDbSymbolTableRecord
100
AcDbBlockTableRecord
  2
*D13
340
0
  0
BLOCK_RECORD
  5
1A9
330
1
100
AcDbSymbolTableRecord
100
AcDbBlockTableRecord
  2
*D14
340
0
  0
BLOCK_RECORD
  5
1B5
330
1
100
AcDbSymbolTableRecord
100
AcDbBlockTableRecord
  2
*D15
340
0
  0
BLOCK_RECORD
  5
1C1
330
1
100
AcDbSymbolTableRecord
100
AcDbBlockTableRecord
  2
*D16
340
0
  0
BLOCK_RECORD
  5
1CD
330
1
100
AcDbSymbolTableRecord
100
AcDbBlockTableRecord
  2
*D17
340
0
  0
BLOCK_RECORD
  5
1D9
330
1
100
AcDbSymbolTableRecord
100
AcDbBlockTableRecord
  2
*D18
340
0
  0
BLOCK_RECORD
  5
1E1
330
1
100
AcDbSymbolTableRecord
100
AcDbBlockTableRecord
  2
*D19
340
0
  0
BLOCK_RECORD
  5
1EA
330
1
100
AcDbSymbolTableRecord
100
AcDbBlockTableRecord
  2
*D20
340
0
  0
BLOCK_RECORD
  5
1F3
330
1
100
AcDbSymbolTableRecord
100
AcDbBlockTableRecord
  2
*D21
340
0
  0
BLOCK_RECORD
  5
1FC
330
1
100
AcDbSymbolTableRecord
100
AcDbBlockTableRecord
  2
*D22
340
0
  0
BLOCK_RECORD
  5
208
330
1
100
AcDbSymbolTableRecord
100
AcDbBlockTableRecord
  2
*D23
340
0
  0
BLOCK_RECORD
  5
5C8
330
1
100
AcDbSymbolTableRecord
100
AcDbBlockTableRecord
  2
*D24
340
0
  0
BLOCK_RECORD
  5
5D4
330
1
100
AcDbSymbolTableRecord
100
AcDbBlockTableRecord
  2
*D25
340
0
  0
BLOCK_RECORD
  5
5E0
330
1
100
AcDbSymbolTableRecord
100
AcDbBlockTableRecord
  2
*D26
340
0
  0
BLOCK_RECORD
  5
5EC
330
1
100
AcDbSymbolTableRecord
100
AcDbBlockTableRecord
  2
*D27
340
0
  0
BLOCK_RECORD
  5
5F8
330
1
100
AcDbSymbolTableRecord
100
AcDbBlockTableRecord
  2
*D28
340
0
  0
BLOCK_RECORD
  5
604
330
1
100
AcDbSymbolTableRecord
100
AcDbBlockTableRecord
  2
*D29
340
0
  0
BLOCK_RECORD
  5
610
330
1
100
AcDbSymbolTableRecord
100
AcDbBlockTableRecord
  2
*D30
340
0
  0
BLOCK_RECORD
  5
61C
330
1
100
AcDbSymbolTableRecord
100
AcDbBlockTableRecord
  2
*D31
340
0
  0
BLOCK_RECORD
  5
628
330
1
100
AcDbSymbolTableRecord
100
AcDbBlockTableRecord
  2
*D32
340
0
  0
BLOCK_RECORD
  5
634
330
1
100
AcDbSymbolTableRecord
100
AcDbBlockTableRecord
  2
*D33
340
0
  0
BLOCK_RECORD
  5
640
330
1
100
AcDbSymbolTableRecord
100
AcDbBlockTableRecord
  2
*D34
340
0
  0
BLOCK_RECORD
  5
64C
330
1
100
AcDbSymbolTableRecord
100
AcDbBlockTableRecord
  2
*D35
340
0
  0
BLOCK_RECORD
  5
658
330
1
100
AcDbSymbolTableRecord
100
AcDbBlockTableRecord
  2
*D36
340
0
  0
BLOCK_RECORD
  5
664
330
1
100
AcDbSymbolTableRecord
100
AcDbBlockTableRecord
  2
*D37
340
0
  0
BLOCK_RECORD
  5
670
330
1
100
AcDbSymbolTableRecord
100
AcDbBlockTableRecord
  2
*D38
340
0
  0
BLOCK_RECORD
  5
67C
330
1
100
AcDbSymbolTableRecord
100
AcDbBlockTableRecord
  2
*D39
340
0
  0
BLOCK_RECORD
  5
688
330
1
100
AcDbSymbolTableRecord
100
AcDbBlockTableRecord
  2
*D40
340
0
  0
BLOCK_RECORD
  5
694
330
1
100
AcDbSymbolTableRecord
100
AcDbBlockTableRecord
  2
*D41
340
0
  0
BLOCK_RECORD
  5
6A0
330
1
100
AcDbSymbolTableRecord
100
AcDbBlockTableRecord
  2
*D42
340
0
  0
BLOCK_RECORD
  5
6A8
330
1
100
AcDbSymbolTableRecord
100
AcDbBlockTableRecord
  2
*D43
340
0
  0
BLOCK_RECORD
  5
6B1
330
1
100
AcDbSymbolTableRecord
100
AcDbBlockTableRecord
  2
*D44
340
0
  0
BLOCK_RECORD
  5
6BA
330
1
100
AcDbSymbolTableRecord
100
AcDbBlockTableRecord
  2
*D45
340
0
  0
BLOCK_RECORD
  5
703
330
1
100
AcDbSymbolTableRecord
100
AcDbBlockTableRecord
  2
*D46
340
0
  0
BLOCK_RECORD
  5
749
330
1
100
AcDbSymbolTableRecord
100
AcDbBlockTableRecord
  2
*D47
340
0
  0
BLOCK_RECORD
  5
918
330
1
100
AcDbSymbolTableRecord
100
AcDbBlockTableRecord
  2
AI9-BLK1
340
0
  0
BLOCK_RECORD
  5
91C
330
1
100
AcDbSymbolTableRecord
100
AcDbBlockTableRecord
  2
AI9-BLK2
340
0
  0
BLOCK_RECORD
  5
920
330
1
100
AcDbSymbolTableRecord
100
AcDbBlockTableRecord
  2
AI9-BLK3
340
0
  0
BLOCK_RECORD
  5
924
330
1
100
AcDbSymbolTableRecord
100
AcDbBlockTableRecord
  2
AI9-BLK4
340
0
  0
BLOCK_RECORD
  5
928
330
1
100
AcDbSymbolTableRecord
100
AcDbBlockTableRecord
  2
AI9-BLK5
340
0
102
{BLKREFS
331
926
102
}
  0
BLOCK_RECORD
  5
92E
330
1
100
AcDbSymbolTableRecord
100
AcDbBlockTableRecord
  2
AI9-BLK6
340
0
  0
BLOCK_RECORD
  5
932
330
1
100
AcDbSymbolTableRecord
100
AcDbBlockTableRecord
  2
AI9-BLK7
340
0
102
{BLKREFS
331
930
102
}
  0
BLOCK_RECORD
  5
938
330
1
100
AcDbSymbolTableRecord
100
AcDbBlockTableRecord
  2
AI9-BLK8
340
0
  0
BLOCK_RECORD
  5
93C
330
1
100
AcDbSymbolTableRecord
100
AcDbBlockTableRecord
  2
AI9-BLK9
340
0
102
{BLKREFS
331
93A
102
}
  0
BLOCK_RECORD
  5
1263
330
1
100
AcDbSymbolTableRecord
100
AcDbBlockTableRecord
  2
*D57
340
0
  0
BLOCK_RECORD
  5
12A8
330
1
100
AcDbSymbolTableRecord
100
AcDbBlockTableRecord
  2
*D58
340
0
  0
BLOCK_RECORD
  5
12DB
330
1
100
AcDbSymbolTableRecord
100
AcDbBlockTableRecord
  2
*D59
340
0
  0
ENDTAB
  0
ENDSEC
  0
SECTION
  2
BLOCKS
  0
BLOCK
  5
76
330
75
100
AcDbEntity
  8
0
100
AcDbBlockBegin
  2
*Model_Space
 70
     0
 10
0.0
 20
0.0
 30
0.0
  3
*Model_Space
  1

  0
ENDBLK
  5
77
330
75
100
AcDbEntity
  8
0
100
AcDbBlockEnd
  0
BLOCK
  5
72
330
71
100
AcDbEntity
 67
     1
  8
0
100
AcDbBlockBegin
  2
*Paper_Space
 70
     0
 10
0.0
 20
0.0
 30
0.0
  3
*Paper_Space
  1

  0
ENDBLK
  5
73
330
71
100
AcDbEntity
 67
     1
  8
0
100
AcDbBlockEnd
  0
BLOCK
  5
7A
330
79
100
AcDbEntity
 67
     1
  8
0
100
AcDbBlockBegin
  2
*Paper_Space0
 70
     0
 10
0.0
 20
0.0
 30
0.0
  3
*Paper_Space0
  1

  0
ENDBLK
  5
7B
330
79
100
AcDbEntity
 67
     1
  8
0
100
AcDbBlockEnd
  0
BLOCK
  5
107
330
105
100
AcDbEntity
  8
0
100
AcDbBlockBegin
  2
GENAXEH
 70
     0
 10
0.0
 20
0.0
 30
0.0
  3
GENAXEH
  1

  0
LINE
  5
106
330
105
100
AcDbEntity
  8
0
100
AcDbLine
 10
-1.0
 20
0.0
 30
0.0
 11
1.0
 21
0.0
 31
0.0
  0
ENDBLK
  5
108
330
105
100
AcDbEntity
  8
0
100
AcDbBlockEnd
  0
BLOCK
  5
11A
330
119
100
AcDbEntity
  8
0
100
AcDbBlockBegin
  2
*D2
 70
     1
 10
0.0
 20
0.0
 30
0.0
  3
*D2
  1

  0
LINE
  5
11B
330
119
100
AcDbEntity
  8
AM_5
100
AcDbLine
 10
175.7796977160069
 20
208.3105312133473
 30
0.0
 11
135.9249431033284
 21
208.3105312133473
 31
0.0
  0
LINE
  5
11C
330
119
100
AcDbEntity
  8
AM_5
100
AcDbLine
 10
175.7796977160069
 20
168.8325102443803
 30
0.0
 11
135.9249431033284
 21
168.8325102443803
 31
0.0
  0
LINE
  5
11D
330
119
100
AcDbEntity
  8
AM_5
100
AcDbLine
 10
136.9249431033284
 20
205.8105312133473
 30
0.0
 11
136.9249431033284
 21
171.3325102443802
 31
0.0
  0
SOLID
  5
11E
330
119
100
AcDbEntity
  8
AM_5
100
AcDbTrace
 10
136.5082764366617
 20
205.8105312133473
 30
0.0
 11
137.341609769995
 21
205.8105312133473
 31
0.0
 12
136.9249431033284
 22
208.3105312133473
 32
0.0
 13
136.9249431033284
 23
208.3105312133473
 33
0.0
  0
SOLID
  5
11F
330
119
100
AcDbEntity
  8
AM_5
100
AcDbTrace
 10
136.5082764366617
 20
171.3325102443802
 30
0.0
 11
137.341609769995
 21
171.3325102443802
 31
0.0
 12
136.9249431033284
 22
168.8325102443803
 32
0.0
 13
136.9249431033284
 23
168.8325102443803
 33
0.0
  0
MTEXT
  5
120
330
119
100
AcDbEntity
  8
AM_5
 62
     2
100
AcDbMText
 10
133.6749431033283
 20
188.5715207288638
 30
0.0
 40
3.5
 41
0.0
 71
     5
 72
     1
  1
85
 11
0.0000000000000001
 21
1.0
 31
0.0
 73
     1
 44
1.0
1001
ACAD
1000
MTEXTBEGIN
1070
    73
1070
     1
1070
    44
1040
1.0
1070
    74
1070
     0
1000
MTEXTEND
  0
POINT
  5
121
330
119
100
AcDbEntity
  8
DEFPOINTS
 62
     0
100
AcDbPoint
 10
176.7796977160069
 20
208.3105312133473
 30
0.0
  0
POINT
  5
122
330
119
100
AcDbEntity
  8
DEFPOINTS
 62
     0
100
AcDbPoint
 10
176.7796977160069
 20
168.8325102443803
 30
0.0
  0
POINT
  5
123
330
119
100
AcDbEntity
  8
DEFPOINTS
 62
     0
100
AcDbPoint
 10
136.9249431033284
 20
168.8325102443803
 30
0.0
  0
ENDBLK
  5
124
330
119
100
AcDbEntity
  8
0
100
AcDbBlockEnd
  0
BLOCK
  5
126
330
125
100
AcDbEntity
  8
0
100
AcDbBlockBegin
  2
*D3
 70
     1
 10
0.0
 20
0.0
 30
0.0
  3
*D3
  1

  0
LINE
  5
127
330
125
100
AcDbEntity
  8
AM_5
100
AcDbLine
 10
180.1488460721267
 20
164.9471049709428
 30
0.0
 11
180.1488460721267
 21
149.4602674754334
 31
0.0
  0
LINE
  5
128
330
125
100
AcDbEntity
  8
AM_5
100
AcDbLine
 10
203.3287231880121
 20
164.9471049709428
 30
0.0
 11
203.3287231880121
 21
149.4602674754334
 31
0.0
  0
LINE
  5
129
330
125
100
AcDbEntity
  8
AM_5
100
AcDbLine
 10
182.6488460721267
 20
150.4602674754334
 30
0.0
 11
200.8287231880121
 21
150.4602674754334
 31
0.0
  0
SOLID
  5
12A
330
125
100
AcDbEntity
  8
AM_5
100
AcDbTrace
 10
182.6488460721267
 20
150.8769341421
 30
0.0
 11
182.6488460721267
 21
150.0436008087667
 31
0.0
 12
180.1488460721267
 22
150.4602674754334
 32
0.0
 13
180.1488460721267
 23
150.4602674754334
 33
0.0
  0
SOLID
  5
12B
330
125
100
AcDbEntity
  8
AM_5
100
AcDbTrace
 10
200.8287231880121
 20
150.8769341421
 30
0.0
 11
200.8287231880121
 21
150.0436008087667
 31
0.0
 12
203.3287231880121
 22
150.4602674754334
 32
0.0
 13
203.3287231880121
 23
150.4602674754334
 33
0.0
  0
MTEXT
  5
12C
330
125
100
AcDbEntity
  8
AM_5
 62
     2
100
AcDbMText
 10
191.7387846300693
 20
153.7102674754334
 30
0.0
 40
3.5
 41
0.0
 71
     5
 72
     1
  1
40
 73
     1
 44
1.0
1001
ACAD
1000
MTEXTBEGIN
1070
    73
1070
     1
1070
    44
1040
1.0
1070
    74
1070
     0
1000
MTEXTEND
  0
POINT
  5
12D
330
125
100
AcDbEntity
  8
DEFPOINTS
 62
     0
100
AcDbPoint
 10
180.1488460721267
 20
165.9471049709428
 30
0.0
  0
POINT
  5
12E
330
125
100
AcDbEntity
  8
DEFPOINTS
 62
     0
100
AcDbPoint
 10
203.3287231880121
 20
165.9471049709428
 30
0.0
  0
POINT
  5
12F
330
125
100
AcDbEntity
  8
DEFPOINTS
 62
     0
100
AcDbPoint
 10
203.3287231880121
 20
150.4602674754334
 30
0.0
  0
ENDBLK
  5
130
330
125
100
AcDbEntity
  8
0
100
AcDbBlockEnd
  0
BLOCK
  5
132
330
131
100
AcDbEntity
  8
0
100
AcDbBlockBegin
  2
*D4
 70
     1
 10
0.0
 20
0.0
 30
0.0
  3
*D4
  1

  0
LINE
  5
133
330
131
100
AcDbEntity
  8
AM_5
100
AcDbLine
 10
190.8793428304349
 20
171.1253329332464
 30
0.0
 11
188.8868888214082
 21
163.6533157351497
 31
0.0
  0
LINE
  5
134
330
131
100
AcDbEntity
  8
AM_5
100
AcDbLine
 10
203.0710706678916
 20
167.8662726033853
 30
0.0
 11
201.0806256691028
 21
160.4017895109601
 31
0.0
  0
LINE
  5
135
330
131
100
AcDbEntity
  8
AM_5
100
AcDbLine
 10
191.5601354440162
 20
163.9754220758435
 30
0.0
 11
198.9226840867357
 21
162.0121584522562
 31
0.0
  0
SOLID
  5
136
330
131
100
AcDbEntity
  8
AM_5
100
AcDbTrace
 10
191.667490660733
 20
164.3780210929248
 30
0.0
 11
191.4527802272993
 21
163.5728230587623
 31
0.0
 12
189.1445413415287
 22
164.6195533761447
 32
0.0
 13
189.1445413415287
 23
164.6195533761447
 33
0.0
  0
SOLID
  5
137
330
131
100
AcDbEntity
  8
AM_5
100
AcDbTrace
 10
199.0300393034526
 20
162.4147574693375
 30
0.0
 11
198.8153288700189
 21
161.609559435175
 31
0.0
 12
201.3382781892232
 22
161.3680271519551
 32
0.0
 13
201.3382781892232
 23
161.3680271519551
 33
0.0
  0
MTEXT
  5
138
330
131
100
AcDbEntity
  8
AM_5
 62
     2
100
AcDbMText
 10
196.0788692140175
 20
166.1343954547387
 30
0.0
 40
3.5
 41
0.0
 71
     5
 72
     1
  1
20
 11
0.9662376409949938
 21
-0.2576525201204697
 31
0.0
 73
     1
 44
1.0
1001
ACAD
1000
MTEXTBEGIN
1070
    73
1070
     1
1070
    44
1040
1.0
1070
    74
1070
     0
1000
MTEXTEND
  0
POINT
  5
139
330
131
100
AcDbEntity
  8
DEFPOINTS
 62
     0
100
AcDbPoint
 10
191.1369953505555
 20
172.0915705742414
 30
0.0
  0
POINT
  5
13A
330
131
100
AcDbEntity
  8
DEFPOINTS
 62
     0
100
AcDbPoint
 10
203.328723188012
 20
168.8325102443803
 30
0.0
  0
POINT
  5
13B
330
131
100
AcDbEntity
  8
DEFPOINTS
 62
     0
100
AcDbPoint
 10
201.3382781892232
 20
161.3680271519551
 30
0.0
  0
ENDBLK
  5
13C
330
131
100
AcDbEntity
  8
0
100
AcDbBlockEnd
  0
BLOCK
  5
13E
330
13D
100
AcDbEntity
  8
0
100
AcDbBlockBegin
  2
*D5
 70
     1
 10
0.0
 20
0.0
 30
0.0
  3
*D5
  1

  0
LINE
  5
13F
330
13D
100
AcDbEntity
  8
AM_5
100
AcDbLine
 10
171.6819374630363
 20
203.0031186351049
 30
0.0
 11
164.5545942965437
 21
198.792551999138
 31
0.0
  0
LINE
  5
140
330
13D
100
AcDbEntity
  8
AM_5
100
AcDbLine
 10
190.2438018836092
 20
171.5829348514678
 30
0.0
 11
183.1164587171167
 21
167.3723682155009
 31
0.0
  0
LINE
  5
141
330
13D
100
AcDbEntity
  8
AM_5
100
AcDbLine
 10
166.6871654276289
 20
197.1487331615339
 30
0.0
 11
182.7058512343337
 21
170.0334584986523
 31
0.0
  0
SOLID
  5
142
330
13D
100
AcDbEntity
  8
AM_5
100
AcDbTrace
 10
167.0459078543585
 20
197.3606647126895
 30
0.0
 11
166.3284230008993
 21
196.9368016103782
 31
0.0
 12
165.4155761206949
 22
199.3011877219116
 32
0.0
 13
165.4155761206949
 23
199.3011877219116
 33
0.0
  0
SOLID
  5
143
330
13D
100
AcDbEntity
  8
AM_5
100
AcDbTrace
 10
183.0645936610633
 20
170.2453900498079
 30
0.0
 11
182.3471088076041
 21
169.8215269474966
 31
0.0
 12
183.9774405412678
 22
167.8810039382745
 32
0.0
 13
183.9774405412678
 23
167.8810039382745
 33
0.0
  0
MTEXT
  5
144
330
13D
100
AcDbEntity
  8
AM_5
 62
     2
100
AcDbMText
 10
177.4946992594724
 20
185.2441619291073
 30
0.0
 40
3.5
 41
0.0
 71
     5
 72
     1
  1
77
 11
0.5086357227736218
 21
-0.8609818241510998
 31
0.0
 73
     1
 44
1.0
1001
ACAD
1000
MTEXTBEGIN
1070
    73
1070
     1
1070
    44
1040
1.0
1070
    74
1070
     0
1000
MTEXTEND
  0
POINT
  5
145
330
13D
100
AcDbEntity
  8
DEFPOINTS
 62
     0
100
AcDbPoint
 10
172.5429192871874
 20
203.5117543578786
 30
0.0
  0
POINT
  5
146
330
13D
100
AcDbEntity
  8
DEFPOINTS
 62
     0
100
AcDbPoint
 10
191.1047837077603
 20
172.0915705742414
 30
0.0
  0
POINT
  5
147
330
13D
100
AcDbEntity
  8
DEFPOINTS
 62
     0
100
AcDbPoint
 10
183.9774405412678
 20
167.8810039382745
 30
0.0
  0
ENDBLK
  5
148
330
13D
100
AcDbEntity
  8
0
100
AcDbBlockEnd
  0
BLOCK
  5
14A
330
149
100
AcDbEntity
  8
0
100
AcDbBlockBegin
  2
*D6
 70
     1
 10
0.0
 20
0.0
 30
0.0
  3
*D6
  1

  0
LINE
  5
14B
330
149
100
AcDbEntity
  8
AM_5
100
AcDbLine
 10
210.109922379276
 20
203.4043527969899
 30
0.0
 11
219.0746492118085
 21
201.9063539623115
 31
0.0
  0
LINE
  5
14C
330
149
100
AcDbEntity
  8
AM_5
100
AcDbLine
 10
204.3150478404305
 20
168.7251086834916
 30
0.0
 11
213.279774672963
 21
167.2271098488132
 31
0.0
  0
LINE
  5
14D
330
149
100
AcDbEntity
  8
AM_5
100
AcDbLine
 10
217.6762893664784
 20
199.60535640843
 30
0.0
 11
212.7054852134563
 21
169.8577355570239
 31
0.0
  0
SOLID
  5
14E
330
149
100
AcDbEntity
  8
AM_5
100
AcDbTrace
 10
217.265320761304
 20
199.674028940582
 30
0.0
 11
218.0872579716527
 21
199.5366838762781
 31
0.0
 12
218.08832455939
 22
202.0711680394762
 32
0.0
 13
218.08832455939
 23
202.0711680394762
 33
0.0
  0
SOLID
  5
14F
330
149
100
AcDbEntity
  8
AM_5
100
AcDbTrace
 10
212.294516608282
 20
169.9264080891759
 30
0.0
 11
213.1164538186307
 21
169.789063024872
 31
0.0
 12
212.2934500205446
 22
167.3919239259779
 32
0.0
 13
212.2934500205446
 23
167.3919239259779
 33
0.0
  0
MTEXT
  5
150
330
149
100
AcDbEntity
  8
AM_5
 62
     2
100
AcDbMText
 10
211.9853321696074
 20
185.2671917335122
 30
0.0
 40
3.5
 41
0.0
 71
     5
 72
     1
  1
78
 11
0.1648140771646907
 21
0.9863246524184376
 31
0.0
 73
     1
 44
1.0
1001
ACAD
1000
MTEXTBEGIN
1070
    73
1070
     1
1070
    44
1040
1.0
1070
    74
1070
     0
1000
MTEXTEND
  0
POINT
  5
151
330
149
100
AcDbEntity
  8
DEFPOINTS
 62
     0
100
AcDbPoint
 10
209.1235977268576
 20
203.5691668741546
 30
0.0
  0
POINT
  5
152
330
149
100
AcDbEntity
  8
DEFPOINTS
 62
     0
100
AcDbPoint
 10
203.3287231880121
 20
168.8899227606563
 30
0.0
  0
POINT
  5
153
330
149
100
AcDbEntity
  8
DEFPOINTS
 62
     0
100
AcDbPoint
 10
212.2934500205446
 20
167.3919239259779
 30
0.0
  0
ENDBLK
  5
154
330
149
100
AcDbEntity
  8
0
100
AcDbBlockEnd
  0
BLOCK
  5
156
330
155
100
AcDbEntity
  8
0
100
AcDbBlockBegin
  2
*D7
 70
     1
 10
0.0
 20
0.0
 30
0.0
  3
*D7
  1

  0
LINE
  5
157
330
155
100
AcDbEntity
  8
AM_5
100
AcDbLine
 10
202.6229136320044
 20
209.1744257056936
 30
0.0
 11
205.265374516014
 21
213.0635036705175
 31
0.0
  0
LINE
  5
158
330
155
100
AcDbEntity
  8
AM_5
100
AcDbLine
 10
209.6856005352162
 20
204.338889681388
 30
0.0
 11
212.3451422467392
 21
208.2531065878345
 31
0.0
  0
LINE
  5
159
330
155
100
AcDbEntity
  8
AM_5
100
AcDbLine
 10
206.7712100164291
 20
210.8313613261116
 30
0.0
 11
209.715301129607
 21
208.8309782852215
 31
0.0
  0
SOLID
  5
15A
330
155
100
AcDbEntity
  8
AM_5
100
AcDbTrace
 10
207.0053778532452
 20
211.1760010442405
 30
0.0
 11
206.5370421796131
 21
210.4867216079826
 31
0.0
 12
204.7033717076555
 22
212.236368347008
 32
0.0
 13
204.7033717076555
 23
212.236368347008
 33
0.0
  0
SOLID
  5
15B
330
155
100
AcDbEntity
  8
AM_5
100
AcDbTrace
 10
209.9494689664231
 20
209.1756180033504
 30
0.0
 11
209.481133292791
 21
208.4863385670925
 31
0.0
 12
211.7831394383807
 22
207.4259712643251
 32
0.0
 13
211.7831394383807
 23
207.4259712643251
 33
0.0
  0
MTEXT
  5
15C
330
155
100
AcDbEntity
  8
AM_5
 62
     2
100
AcDbMText
 10
210.0697647001834
 20
212.5193596070723
 30
0.0
 40
3.5
 41
0.0
 71
     5
 72
     1
  1
18
 11
0.8271353235094524
 21
-0.5620028083585648
 31
0.0
 73
     1
 44
1.0
1001
ACAD
1000
MTEXTBEGIN
1070
    73
1070
     1
1070
    44
1040
1.0
1070
    74
1070
     0
1000
MTEXTEND
  0
POINT
  5
15D
330
155
100
AcDbEntity
  8
DEFPOINTS
 62
     0
100
AcDbPoint
 10
202.0609108236458
 20
208.3472903821842
 30
0.0
  0
POINT
  5
15E
330
155
100
AcDbEntity
  8
DEFPOINTS
 62
     0
100
AcDbPoint
 10
209.1235977268576
 20
203.5117543578786
 30
0.0
  0
POINT
  5
15F
330
155
100
AcDbEntity
  8
DEFPOINTS
 62
     0
100
AcDbPoint
 10
211.7831394383807
 20
207.4259712643251
 30
0.0
  0
ENDBLK
  5
160
330
155
100
AcDbEntity
  8
0
100
AcDbBlockEnd
  0
BLOCK
  5
162
330
161
100
AcDbEntity
  8
0
100
AcDbBlockBegin
  2
*D8
 70
     1
 10
0.0
 20
0.0
 30
0.0
  3
*D8
  1

  0
LINE
  5
163
330
161
100
AcDbEntity
  8
AM_5
100
AcDbLine
 10
190.9124875643538
 20
206.0617608677407
 30
0.0
 11
189.2626713109154
 21
197.6423219340913
 31
0.0
  0
LINE
  5
164
330
161
100
AcDbEntity
  8
AM_5
100
AcDbLine
 10
208.9313015834509
 20
202.5304174161348
 30
0.0
 11
207.2815794279021
 21
194.1114586883463
 31
0.0
  0
LINE
  5
165
330
161
100
AcDbEntity
  8
AM_5
100
AcDbLine
 10
191.9083098086814
 20
198.1429185173185
 30
0.0
 11
205.0205332169494
 21
195.5735359886066
 31
0.0
  0
SOLID
  5
166
330
161
100
AcDbEntity
  8
AM_5
100
AcDbTrace
 10
191.9884332017673
 20
198.5518089097117
 30
0.0
 11
191.8281864155953
 21
197.7340281249253
 31
0.0
 12
189.454967454322
 22
198.6236588758351
 32
0.0
 13
189.454967454322
 23
198.6236588758351
 33
0.0
  0
SOLID
  5
167
330
161
100
AcDbEntity
  8
AM_5
100
AcDbTrace
 10
205.1006566100355
 20
195.9824263809998
 30
0.0
 11
204.9404098238633
 21
195.1646455962134
 31
0.0
 12
207.4738755713087
 22
195.09279563009
 32
0.0
 13
207.4738755713087
 23
195.09279563009
 33
0.0
  0
MTEXT
  5
168
330
161
100
AcDbEntity
  8
AM_5
 62
     2
100
AcDbMText
 10
199.0893839788869
 20
200.0475723136297
 30
0.0
 40
3.5
 41
0.0
 71
     5
 72
     1
  1
36
 11
0.9813369417437318
 21
-0.1922961434066202
 31
0.0
 73
     1
 44
1.0
1001
ACAD
1000
MTEXTBEGIN
1070
    73
1070
     1
1070
    44
1040
1.0
1070
    74
1070
     0
1000
MTEXTEND
  0
POINT
  5
169
330
161
100
AcDbEntity
  8
DEFPOINTS
 62
     0
100
AcDbPoint
 10
191.1047837077603
 20
207.0430978094844
 30
0.0
  0
POINT
  5
16A
330
161
100
AcDbEntity
  8
DEFPOINTS
 62
     0
100
AcDbPoint
 10
209.1235977268576
 20
203.5117543578786
 30
0.0
  0
POINT
  5
16B
330
161
100
AcDbEntity
  8
DEFPOINTS
 62
     0
100
AcDbPoint
 10
207.4738755713087
 20
195.09279563009
 30
0.0
  0
ENDBLK
  5
16C
330
161
100
AcDbEntity
  8
0
100
AcDbBlockEnd
  0
BLOCK
  5
16E
330
16D
100
AcDbEntity
  8
0
100
AcDbBlockBegin
  2
*D9
 70
     1
 10
0.0
 20
0.0
 30
0.0
  3
*D9
  1

  0
LINE
  5
16F
330
16D
100
AcDbEntity
  8
AM_5
100
AcDbLine
 10
180.2637512549705
 20
209.3039076772096
 30
0.0
 11
181.4798968499166
 21
219.8177102816754
 31
0.0
  0
LINE
  5
170
330
16D
100
AcDbEntity
  8
AM_5
100
AcDbLine
 10
191.2209464114525
 20
208.0364742733467
 30
0.0
 11
192.4370920063985
 21
218.5502768778125
 31
0.0
  0
LINE
  5
171
330
16D
100
AcDbEntity
  8
AM_5
100
AcDbLine
 10
183.8484328267287
 20
218.5370708607036
 30
0.0
 11
189.838745663899
 21
217.8441633710595
 31
0.0
  0
SOLID
  5
172
330
16D
100
AcDbEntity
  8
AM_5
100
AcDbTrace
 10
183.8963099862469
 20
218.9509777206462
 30
0.0
 11
183.8005556672104
 21
218.123164000761
 31
0.0
 12
181.3649916670728
 22
218.824333817813
 32
0.0
 13
181.3649916670728
 23
218.824333817813
 33
0.0
  0
SOLID
  5
173
330
16D
100
AcDbEntity
  8
AM_5
100
AcDbTrace
 10
189.8866228234172
 20
218.2580702310022
 30
0.0
 11
189.7908685043807
 21
217.4302565111169
 31
0.0
 12
192.3221868235548
 22
217.5569004139501
 32
0.0
 13
192.3221868235548
 23
217.5569004139501
 33
0.0
  0
MTEXT
  5
174
330
16D
100
AcDbEntity
  8
AM_5
 62
     2
100
AcDbMText
 10
187.2170706730343
 20
221.4194328298932
 30
0.0
 40
3.5
 41
0.0
 71
     5
 72
     1
  1
20
 11
0.9933764638623378
 21
-0.1149051828437579
 31
0.0
 73
     1
 44
1.0
1001
ACAD
1000
MTEXTBEGIN
1070
    73
1070
     1
1070
    44
1040
1.0
1070
    74
1070
     0
1000
MTEXTEND
  0
POINT
  5
175
330
16D
100
AcDbEntity
  8
DEFPOINTS
 62
     0
100
AcDbPoint
 10
180.1488460721267
 20
208.3105312133473
 30
0.0
  0
POINT
  5
176
330
16D
100
AcDbEntity
  8
DEFPOINTS
 62
     0
100
AcDbPoint
 10
191.1060412286087
 20
207.0430978094844
 30
0.0
  0
POINT
  5
177
330
16D
100
AcDbEntity
  8
DEFPOINTS
 62
     0
100
AcDbPoint
 10
192.3221868235548
 20
217.5569004139501
 30
0.0
  0
ENDBLK
  5
178
330
16D
100
AcDbEntity
  8
0
100
AcDbBlockEnd
  0
BLOCK
  5
17A
330
179
100
AcDbEntity
  8
0
100
AcDbBlockBegin
  2
*D10
 70
     1
 10
0.0
 20
0.0
 30
0.0
  3
*D10
  1

  0
LINE
  5
17B
330
179
100
AcDbEntity
  8
AM_5
100
AcDbLine
 10
186.2066064887931
 20
207.0430978094844
 30
0.0
 11
142.363846799173
 21
207.0430978094844
 31
0.0
  0
LINE
  5
17C
330
179
100
AcDbEntity
  8
AM_5
100
AcDbLine
 10
185.9062802897916
 20
172.0915705742414
 30
0.0
 11
142.3638467991729
 21
172.0915705742414
 31
0.0
  0
LINE
  5
17D
330
179
100
AcDbEntity
  8
AM_5
100
AcDbLine
 10
143.363846799173
 20
204.5430978094844
 30
0.0
 11
143.3638467991729
 21
174.5915705742414
 31
0.0
  0
SOLID
  5
17E
330
179
100
AcDbEntity
  8
AM_5
100
AcDbTrace
 10
142.9471801325063
 20
204.5430978094844
 30
0.0
 11
143.7805134658396
 21
204.5430978094844
 31
0.0
 12
143.363846799173
 22
207.0430978094844
 32
0.0
 13
143.363846799173
 23
207.0430978094844
 33
0.0
  0
SOLID
  5
17F
330
179
100
AcDbEntity
  8
AM_5
100
AcDbTrace
 10
142.9471801325063
 20
174.5915705742414
 30
0.0
 11
143.7805134658396
 21
174.5915705742414
 31
0.0
 12
143.3638467991729
 22
172.0915705742414
 32
0.0
 13
143.3638467991729
 23
172.0915705742414
 33
0.0
  0
MTEXT
  5
180
330
179
100
AcDbEntity
  8
AM_5
 62
     2
100
AcDbMText
 10
140.1138467991729
 20
189.5673341918629
 30
0.0
 40
3.5
 41
0.0
 71
     5
 72
     1
  1
75
 11
0.0000000000000001
 21
1.0
 31
0.0
 73
     1
 44
1.0
1001
ACAD
1000
MTEXTBEGIN
1070
    73
1070
     1
1070
    44
1040
1.0
1070
    74
1070
     0
1000
MTEXTEND
  0
POINT
  5
181
330
179
100
AcDbEntity
  8
DEFPOINTS
 62
     0
100
AcDbPoint
 10
187.2066064887933
 20
207.0430978094844
 30
0.0
  0
POINT
  5
182
330
179
100
AcDbEntity
  8
DEFPOINTS
 62
     0
100
AcDbPoint
 10
186.9062802897916
 20
172.0915705742414
 30
0.0
  0
POINT
  5
183
330
179
100
AcDbEntity
  8
DEFPOINTS
 62
     0
100
AcDbPoint
 10
143.3638467991729
 20
172.0915705742414
 30
0.0
  0
ENDBLK
  5
184
330
179
100
AcDbEntity
  8
0
100
AcDbBlockEnd
  0
BLOCK
  5
186
330
185
100
AcDbEntity
  8
0
100
AcDbBlockBegin
  2
*D11
 70
     1
 10
0.0
 20
0.0
 30
0.0
  3
*D11
  1

  0
LINE
  5
187
330
185
100
AcDbEntity
  8
AM_5
100
AcDbLine
 10
149.7251389323697
 20
217.2063627834428
 30
0.0
 11
149.7251389323697
 21
229.2063627834428
 31
0.0
  0
LINE
  5
188
330
185
100
AcDbEntity
  8
AM_5
100
AcDbLine
 10
232.4844284831511
 20
217.2063627834428
 30
0.0
 11
232.4844284831511
 21
229.2063627834428
 31
0.0
  0
LINE
  5
189
330
185
100
AcDbEntity
  8
AM_5
100
AcDbLine
 10
152.2251389323697
 20
228.2063627834428
 30
0.0
 11
229.9844284831511
 21
228.2063627834428
 31
0.0
  0
SOLID
  5
18A
330
185
100
AcDbEntity
  8
AM_5
100
AcDbTrace
 10
152.2251389323697
 20
228.6230294501094
 30
0.0
 11
152.2251389323697
 21
227.7896961167761
 31
0.0
 12
149.7251389323697
 22
228.2063627834428
 32
0.0
 13
149.7251389323697
 23
228.2063627834428
 33
0.0
  0
SOLID
  5
18B
330
185
100
AcDbEntity
  8
AM_5
100
AcDbTrace
 10
229.9844284831511
 20
228.6230294501094
 30
0.0
 11
229.9844284831511
 21
227.7896961167761
 31
0.0
 12
232.4844284831511
 22
228.2063627834428
 32
0.0
 13
232.4844284831511
 23
228.2063627834428
 33
0.0
  0
MTEXT
  5
18C
330
185
100
AcDbEntity
  8
AM_5
 62
     2
100
AcDbMText
 10
191.1047837077603
 20
231.4563627834428
 30
0.0
 40
3.5
 41
0.0
 71
     5
 72
     1
  1
170
 73
     1
 44
1.0
1001
ACAD
1000
MTEXTBEGIN
1070
    73
1070
     1
1070
    44
1040
1.0
1070
    74
1070
     0
1000
MTEXTEND
  0
POINT
  5
18D
330
185
100
AcDbEntity
  8
DEFPOINTS
 62
     0
100
AcDbPoint
 10
149.7251389323697
 20
216.2063627834428
 30
0.0
  0
POINT
  5
18E
330
185
100
AcDbEntity
  8
DEFPOINTS
 62
     0
100
AcDbPoint
 10
232.4844284831511
 20
216.2063627834427
 30
0.0
  0
POINT
  5
18F
330
185
100
AcDbEntity
  8
DEFPOINTS
 62
     0
100
AcDbPoint
 10
232.4844284831511
 20
228.2063627834428
 30
0.0
  0
ENDBLK
  5
190
330
185
100
AcDbEntity
  8
0
100
AcDbBlockEnd
  0
BLOCK
  5
192
330
191
100
AcDbEntity
  8
0
100
AcDbBlockBegin
  2
*D12
 70
     1
 10
0.0
 20
0.0
 30
0.0
  3
*D12
  1

  0
LINE
  5
193
330
191
100
AcDbEntity
  8
AM_5
100
AcDbLine
 10
233.4844284831511
 20
216.2063627834427
 30
0.0
 11
247.3648315013802
 21
216.2063627834427
 31
0.0
  0
LINE
  5
194
330
191
100
AcDbEntity
  8
AM_5
100
AcDbLine
 10
233.4844284831511
 20
160.9730588826181
 30
0.0
 11
247.3648315013802
 21
160.9730588826181
 31
0.0
  0
LINE
  5
195
330
191
100
AcDbEntity
  8
AM_5
100
AcDbLine
 10
246.3648315013802
 20
213.7063627834427
 30
0.0
 11
246.3648315013802
 21
163.4730588826181
 31
0.0
  0
SOLID
  5
196
330
191
100
AcDbEntity
  8
AM_5
100
AcDbTrace
 10
245.9481648347135
 20
213.7063627834427
 30
0.0
 11
246.7814981680469
 21
213.7063627834427
 31
0.0
 12
246.3648315013802
 22
216.2063627834427
 32
0.0
 13
246.3648315013802
 23
216.2063627834427
 33
0.0
  0
SOLID
  5
197
330
191
100
AcDbEntity
  8
AM_5
100
AcDbTrace
 10
245.9481648347135
 20
163.4730588826181
 30
0.0
 11
246.7814981680468
 21
163.4730588826181
 31
0.0
 12
246.3648315013802
 22
160.9730588826181
 32
0.0
 13
246.3648315013802
 23
160.9730588826181
 33
0.0
  0
MTEXT
  5
198
330
191
100
AcDbEntity
  8
AM_5
 62
     2
100
AcDbMText
 10
243.1148315013802
 20
188.5897108330304
 30
0.0
 40
3.5
 41
0.0
 71
     5
 72
     1
  1
113
 11
0.0000000000000001
 21
1.0
 31
0.0
 73
     1
 44
1.0
1001
ACAD
1000
MTEXTBEGIN
1070
    73
1070
     1
1070
    44
1040
1.0
1070
    74
1070
     0
1000
MTEXTEND
  0
POINT
  5
199
330
191
100
AcDbEntity
  8
DEFPOINTS
 62
     0
100
AcDbPoint
 10
232.4844284831511
 20
216.2063627834427
 30
0.0
  0
POINT
  5
19A
330
191
100
AcDbEntity
  8
DEFPOINTS
 62
     0
100
AcDbPoint
 10
232.4844284831511
 20
160.9730588826181
 30
0.0
  0
POINT
  5
19B
330
191
100
AcDbEntity
  8
DEFPOINTS
 62
     0
100
AcDbPoint
 10
246.3648315013802
 20
160.9730588826181
 30
0.0
  0
ENDBLK
  5
19C
330
191
100
AcDbEntity
  8
0
100
AcDbBlockEnd
  0
BLOCK
  5
19E
330
19D
100
AcDbEntity
  8
0
100
AcDbBlockBegin
  2
*D13
 70
     1
 10
0.0
 20
0.0
 30
0.0
  3
*D13
  1

  0
LINE
  5
19F
330
19D
100
AcDbEntity
  8
AM_5
100
AcDbLine
 10
155.8826786730381
 20
183.2795088066633
 30
0.0
 11
155.8826786730381
 21
141.8702254644401
 31
0.0
  0
LINE
  5
1A0
330
19D
100
AcDbEntity
  8
AM_5
100
AcDbLine
 10
226.9614581055468
 20
183.2795088066633
 30
0.0
 11
226.9614581055468
 21
141.8702254644401
 31
0.0
  0
LINE
  5
1A1
330
19D
100
AcDbEntity
  8
AM_5
100
AcDbLine
 10
158.3826786730381
 20
142.8702254644401
 30
0.0
 11
224.4614581055468
 21
142.8702254644401
 31
0.0
  0
SOLID
  5
1A2
330
19D
100
AcDbEntity
  8
AM_5
100
AcDbTrace
 10
158.3826786730381
 20
143.2868921311067
 30
0.0
 11
158.3826786730381
 21
142.4535587977734
 31
0.0
 12
155.8826786730381
 22
142.8702254644401
 32
0.0
 13
155.8826786730381
 23
142.8702254644401
 33
0.0
  0
SOLID
  5
1A3
330
19D
100
AcDbEntity
  8
AM_5
100
AcDbTrace
 10
224.4614581055468
 20
143.2868921311067
 30
0.0
 11
224.4614581055468
 21
142.4535587977734
 31
0.0
 12
226.9614581055468
 22
142.8702254644401
 32
0.0
 13
226.9614581055468
 23
142.8702254644401
 33
0.0
  0
MTEXT
  5
1A4
330
19D
100
AcDbEntity
  8
AM_5
 62
     2
100
AcDbMText
 10
191.4220683892924
 20
146.12022546444
 30
0.0
 40
3.5
 41
0.0
 71
     5
 72
     1
  1
148
 73
     1
 44
1.0
1001
ACAD
1000
MTEXTBEGIN
1070
    73
1070
     1
1070
    44
1040
1.0
1070
    74
1070
     0
1000
MTEXTEND
  0
POINT
  5
1A5
330
19D
100
AcDbEntity
  8
DEFPOINTS
 62
     0
100
AcDbPoint
 10
155.8826786730381
 20
184.2795088066633
 30
0.0
  0
POINT
  5
1A6
330
19D
100
AcDbEntity
  8
DEFPOINTS
 62
     0
100
AcDbPoint
 10
226.9614581055468
 20
184.2795088066633
 30
0.0
  0
POINT
  5
1A7
330
19D
100
AcDbEntity
  8
DEFPOINTS
 62
     0
100
AcDbPoint
 10
226.9614581055468
 20
142.8702254644401
 30
0.0
  0
ENDBLK
  5
1A8
330
19D
100
AcDbEntity
  8
0
100
AcDbBlockEnd
  0
BLOCK
  5
1AA
330
1A9
100
AcDbEntity
  8
0
100
AcDbBlockBegin
  2
*D14
 70
     1
 10
0.0
 20
0.0
 30
0.0
  3
*D14
  1

  0
LINE
  5
1AB
330
1A9
100
AcDbEntity
  8
AM_5
100
AcDbLine
 10
184.8908228242849
 20
99.69885830753133
 30
0.0
 11
184.8908228242849
 21
119.8989422188631
 31
0.0
  0
LINE
  5
1AC
330
1A9
100
AcDbEntity
  8
AM_5
100
AcDbLine
 10
197.733062268763
 20
99.73974302105602
 30
0.0
 11
197.733062268763
 21
119.8989422188631
 31
0.0
  0
LINE
  5
1AD
330
1A9
100
AcDbEntity
  8
AM_5
100
AcDbLine
 10
187.3908228242849
 20
118.8989422188631
 30
0.0
 11
195.233062268763
 21
118.8989422188631
 31
0.0
  0
SOLID
  5
1AE
330
1A9
100
AcDbEntity
  8
AM_5
100
AcDbTrace
 10
187.3908228242849
 20
119.3156088855298
 30
0.0
 11
187.3908228242849
 21
118.4822755521964
 31
0.0
 12
184.8908228242849
 22
118.8989422188631
 32
0.0
 13
184.8908228242849
 23
118.8989422188631
 33
0.0
  0
SOLID
  5
1AF
330
1A9
100
AcDbEntity
  8
AM_5
100
AcDbTrace
 10
195.233062268763
 20
119.3156088855298
 30
0.0
 11
195.233062268763
 21
118.4822755521964
 31
0.0
 12
197.733062268763
 22
118.8989422188631
 32
0.0
 13
197.733062268763
 23
118.8989422188631
 33
0.0
  0
MTEXT
  5
1B0
330
1A9
100
AcDbEntity
  8
AM_5
 62
     2
100
AcDbMText
 10
191.3119425465239
 20
122.148942218863
 30
0.0
 40
3.5
 41
0.0
 71
     5
 72
     1
  1
18
 73
     1
 44
1.0
1001
ACAD
1000
MTEXTBEGIN
1070
    73
1070
     1
1070
    44
1040
1.0
1070
    74
1070
     0
1000
MTEXTEND
  0
POINT
  5
1B1
330
1A9
100
AcDbEntity
  8
DEFPOINTS
 62
     0
100
AcDbPoint
 10
184.8908228242849
 20
98.69885830753133
 30
0.0
  0
POINT
  5
1B2
330
1A9
100
AcDbEntity
  8
DEFPOINTS
 62
     0
100
AcDbPoint
 10
197.733062268763
 20
98.73974302105605
 30
0.0
  0
POINT
  5
1B3
330
1A9
100
AcDbEntity
  8
DEFPOINTS
 62
     0
100
AcDbPoint
 10
197.733062268763
 20
118.8989422188631
 30
0.0
  0
ENDBLK
  5
1B4
330
1A9
100
AcDbEntity
  8
0
100
AcDbBlockEnd
  0
BLOCK
  5
1B6
330
1B5
100
AcDbEntity
  8
0
100
AcDbBlockBegin
  2
*D15
 70
     1
 10
0.0
 20
0.0
 30
0.0
  3
*D15
  1

  0
LINE
  5
1B7
330
1B5
100
AcDbEntity
  8
AM_5
100
AcDbLine
 10
167.2079013312041
 20
92.85546560586412
 30
0.0
 11
167.2265848861977
 21
81.90422535762435
 31
0.0
  0
LINE
  5
1B8
330
1B5
100
AcDbEntity
  8
AM_5
100
AcDbLine
 10
215.3430184204844
 20
92.93758736439331
 30
0.0
 11
215.361701975478
 21
81.98634711615353
 31
0.0
  0
LINE
  5
1B9
330
1B5
100
AcDbEntity
  8
AM_5
100
AcDbLine
 10
169.7248751828629
 20
82.90848906481921
 30
0.0
 11
212.859999548793
 21
82.98208049829877
 31
0.0
  0
SOLID
  5
1BA
330
1B5
100
AcDbEntity
  8
AM_5
100
AcDbTrace
 10
169.7241643224421
 20
83.32515512509839
 30
0.0
 11
169.7255860432836
 21
82.49182300454
 31
0.0
 12
167.2248788211878
 22
82.90422390229437
 32
0.0
 13
167.2248788211878
 23
82.90422390229437
 33
0.0
  0
SOLID
  5
1BB
330
1B5
100
AcDbEntity
  8
AM_5
100
AcDbTrace
 10
212.8592886883722
 20
83.39874655857791
 30
0.0
 11
212.8607104092138
 21
82.56541443801955
 31
0.0
 12
215.3599959104681
 22
82.98634566082354
 32
0.0
 13
215.3599959104681
 23
82.98634566082354
 33
0.0
  0
MTEXT
  5
1BC
330
1B5
100
AcDbEntity
  8
AM_5
 62
     2
100
AcDbMText
 10
191.2868920668264
 20
86.19562453942421
 30
0.0
 40
3.5
 41
0.0
 71
     5
 72
     1
  1
102
 11
0.9999985446700319
 21
0.0017060650099308
 31
0.0
 73
     1
 44
1.0
1001
ACAD
1000
MTEXTBEGIN
1070
    73
1070
     1
1070
    44
1040
1.0
1070
    74
1070
     0
1000
MTEXTEND
  0
POINT
  5
1BD
330
1B5
100
AcDbEntity
  8
DEFPOINTS
 62
     0
100
AcDbPoint
 10
167.2061952661942
 20
93.85546415053415
 30
0.0
  0
POINT
  5
1BE
330
1B5
100
AcDbEntity
  8
DEFPOINTS
 62
     0
100
AcDbPoint
 10
215.3413123554744
 20
93.93758590906335
 30
0.0
  0
POINT
  5
1BF
330
1B5
100
AcDbEntity
  8
DEFPOINTS
 62
     0
100
AcDbPoint
 10
215.3599959104681
 20
82.98634566082354
 30
0.0
  0
ENDBLK
  5
1C0
330
1B5
100
AcDbEntity
  8
0
100
AcDbBlockEnd
  0
BLOCK
  5
1C2
330
1C1
100
AcDbEntity
  8
0
100
AcDbBlockBegin
  2
*D16
 70
     1
 10
0.0
 20
0.0
 30
0.0
  3
*D16
  1

  0
LINE
  5
1C3
330
1C1
100
AcDbEntity
  8
AM_5
100
AcDbLine
 10
232.8504275608419
 20
113.5139402302744
 30
0.0
 11
241.2406841033257
 21
113.5139402302744
 31
0.0
  0
LINE
  5
1C4
330
1C1
100
AcDbEntity
  8
AM_5
100
AcDbLine
 10
231.5324448117819
 20
98.74297718240384
 30
0.0
 11
241.2406841033257
 21
98.74297718240384
 31
0.0
  0
LINE
  5
1C5
330
1C1
100
AcDbEntity
  8
AM_5
100
AcDbLine
 10
240.2406841033258
 20
111.0139402302744
 30
0.0
 11
240.2406841033258
 21
101.2429771824038
 31
0.0
  0
SOLID
  5
1C6
330
1C1
100
AcDbEntity
  8
AM_5
100
AcDbTrace
 10
239.8240174366591
 20
111.0139402302744
 30
0.0
 11
240.6573507699924
 21
111.0139402302744
 31
0.0
 12
240.2406841033258
 22
113.5139402302744
 32
0.0
 13
240.2406841033258
 23
113.5139402302744
 33
0.0
  0
SOLID
  5
1C7
330
1C1
100
AcDbEntity
  8
AM_5
100
AcDbTrace
 10
239.8240174366591
 20
101.2429771824038
 30
0.0
 11
240.6573507699924
 21
101.2429771824038
 31
0.0
 12
240.2406841033258
 22
98.74297718240384
 32
0.0
 13
240.2406841033258
 23
98.74297718240384
 33
0.0
  0
MTEXT
  5
1C8
330
1C1
100
AcDbEntity
  8
AM_5
 62
     2
100
AcDbMText
 10
236.9906841033257
 20
106.1284587063391
 30
0.0
 40
3.5
 41
0.0
 71
     5
 72
     1
  1
30
 11
0.0000000000000001
 21
1.0
 31
0.0
 73
     1
 44
1.0
1001
ACAD
1000
MTEXTBEGIN
1070
    73
1070
     1
1070
    44
1040
1.0
1070
    74
1070
     0
1000
MTEXTEND
  0
POINT
  5
1C9
330
1C1
100
AcDbEntity
  8
DEFPOINTS
 62
     0
100
AcDbPoint
 10
231.8504275608419
 20
113.5139402302744
 30
0.0
  0
POINT
  5
1CA
330
1C1
100
AcDbEntity
  8
DEFPOINTS
 62
     0
100
AcDbPoint
 10
230.5324448117819
 20
98.74297718240384
 30
0.0
  0
POINT
  5
1CB
330
1C1
100
AcDbEntity
  8
DEFPOINTS
 62
     0
100
AcDbPoint
 10
240.2406841033258
 20
98.74297718240384
 30
0.0
  0
ENDBLK
  5
1CC
330
1C1
100
AcDbEntity
  8
0
100
AcDbBlockEnd
  0
BLOCK
  5
1CE
330
1CD
100
AcDbEntity
  8
0
100
AcDbBlockBegin
  2
*D17
 70
     1
 10
0.0
 20
0.0
 30
0.0
  3
*D17
  1

  0
LINE
  5
1CF
330
1CD
100
AcDbEntity
  8
AM_5
100
AcDbLine
 10
282.1958221192188
 20
200.7798280883473
 30
0.0
 11
294.1958221192188
 21
200.7798280883473
 31
0.0
  0
LINE
  5
1D0
330
1CD
100
AcDbEntity
  8
AM_5
100
AcDbLine
 10
282.131019873125
 20
108.0569089802744
 30
0.0
 11
294.1958221192187
 21
108.0569089802744
 31
0.0
  0
LINE
  5
1D1
330
1CD
100
AcDbEntity
  8
AM_5
100
AcDbLine
 10
293.1958221192188
 20
198.2798280883473
 30
0.0
 11
293.1958221192187
 21
110.5569089802744
 31
0.0
  0
SOLID
  5
1D2
330
1CD
100
AcDbEntity
  8
AM_5
100
AcDbTrace
 10
292.7791554525521
 20
198.2798280883473
 30
0.0
 11
293.6124887858855
 21
198.2798280883473
 31
0.0
 12
293.1958221192188
 22
200.7798280883473
 32
0.0
 13
293.1958221192188
 23
200.7798280883473
 33
0.0
  0
SOLID
  5
1D3
330
1CD
100
AcDbEntity
  8
AM_5
100
AcDbTrace
 10
292.7791554525521
 20
110.5569089802744
 30
0.0
 11
293.6124887858854
 21
110.5569089802744
 31
0.0
 12
293.1958221192187
 22
108.0569089802744
 32
0.0
 13
293.1958221192187
 23
108.0569089802744
 33
0.0
  0
MTEXT
  5
1D4
330
1CD
100
AcDbEntity
  8
AM_5
 62
     2
100
AcDbMText
 10
289.9454776310297
 20
154.4183685343108
 30
0.0
 40
3.5
 41
0.0
 71
     5
 72
     1
  1
200
 11
0.0000000000000001
 21
1.0
 31
0.0
 73
     1
 44
1.0
1001
ACAD
1000
MTEXTBEGIN
1070
    73
1070
     1
1070
    44
1040
1.0
1070
    74
1070
     0
1000
MTEXTEND
  0
POINT
  5
1D5
330
1CD
100
AcDbEntity
  8
DEFPOINTS
 62
     0
100
AcDbPoint
 10
281.1958221192188
 20
200.7798280883473
 30
0.0
  0
POINT
  5
1D6
330
1CD
100
AcDbEntity
  8
DEFPOINTS
 62
     0
100
AcDbPoint
 10
281.1310198731249
 20
108.0569089802744
 30
0.0
  0
POINT
  5
1D7
330
1CD
100
AcDbEntity
  8
DEFPOINTS
 62
     0
100
AcDbPoint
 10
293.1958221192187
 20
108.0569089802744
 30
0.0
  0
ENDBLK
  5
1D8
330
1CD
100
AcDbEntity
  8
0
100
AcDbBlockEnd
  0
BLOCK
  5
1DA
330
1D9
100
AcDbEntity
  8
0
100
AcDbBlockBegin
  2
*D18
 70
     1
 10
0.0
 20
0.0
 30
0.0
  3
*D18
  1

  0
LINE
  5
1DB
330
1D9
100
AcDbEntity
  8
0
100
AcDbLine
 10
347.3952440956038
 20
150.8533308028771
 30
0.0
 11
323.2871290350258
 21
157.6538411524064
 31
0.0
  0
SOLID
  5
1DC
330
1D9
100
AcDbEntity
  8
0
100
AcDbTrace
 10
347.5083646022662
 20
151.2543480868981
 30
0.0
 11
347.2821235889415
 21
150.4523135188561
 31
0.0
 12
349.8013477997298
 22
150.1746077629035
 32
0.0
 13
349.8013477997298
 23
150.1746077629035
 33
0.0
  0
SOLID
  5
1DD
330
1D9
100
AcDbEntity
  8
0
100
AcDbTrace
 10
323.4002495416882
 20
158.0548584364274
 30
0.0
 11
323.1740085283636
 21
157.2528238683854
 31
0.0
 12
320.8810253308998
 22
158.3325641923801
 32
0.0
 13
320.8810253308998
 23
158.3325641923801
 33
0.0
  0
POINT
  5
1DE
330
1D9
100
AcDbEntity
  8
DEFPOINTS
 62
     0
100
AcDbPoint
 10
320.8810253308998
 20
158.3325641923801
 30
0.0
  0
POINT
  5
1DF
330
1D9
100
AcDbEntity
  8
DEFPOINTS
 62
     0
100
AcDbPoint
 10
349.8013477997298
 20
150.1746077629035
 30
0.0
  0
ENDBLK
  5
1E0
330
1D9
100
AcDbEntity
  8
0
100
AcDbBlockEnd
  0
BLOCK
  5
1E2
330
1E1
100
AcDbEntity
  8
0
100
AcDbBlockBegin
  2
*D19
 70
     1
 10
0.0
 20
0.0
 30
0.0
  3
*D19
  1

  0
LINE
  5
1E3
330
1E1
100
AcDbEntity
  8
0
100
AcDbLine
 10
184.300803050942
 20
197.2614043894646
 30
0.0
 11
166.7350144902011
 21
218.7139868569305
 31
0.0
  0
LINE
  5
1E4
330
1E1
100
AcDbEntity
  8
0
100
AcDbLine
 10
166.7350144902011
 20
218.7139868569305
 30
0.0
 11
157.8266811568678
 21
218.7139868569305
 31
0.0
  0
SOLID
  5
1E5
330
1E1
100
AcDbEntity
  8
0
100
AcDbTrace
 10
184.6231845140501
 20
197.5253765534429
 30
0.0
 11
183.9784215878339
 21
196.9974322254865
 31
0.0
 12
185.8846360348117
 22
195.327115610816
 32
0.0
 13
185.8846360348117
 23
195.327115610816
 33
0.0
  0
MTEXT
  5
1E6
330
1E1
100
AcDbEntity
  8
0
 62
     2
100
AcDbMText
 10
161.5308478235344
 20
221.9639868569305
 30
0.0
 40
3.5
 41
0.0
 71
     5
 72
     1
  1
Φ31
 73
     1
 44
1.0
1001
ACAD
1000
MTEXTBEGIN
1070
    73
1070
     1
1070
    44
1040
1.0
1070
    74
1070
     0
1000
MTEXTEND
  0
POINT
  5
1E7
330
1E1
100
AcDbEntity
  8
DEFPOINTS
 62
     0
100
AcDbPoint
 10
185.8846360348117
 20
195.327115610816
 30
0.0
  0
POINT
  5
1E8
330
1E1
100
AcDbEntity
  8
DEFPOINTS
 62
     0
100
AcDbPoint
 10
191.1047837077594
 20
188.951902334223
 30
0.0
  0
ENDBLK
  5
1E9
330
1E1
100
AcDbEntity
  8
0
100
AcDbBlockEnd
  0
BLOCK
  5
1EB
330
1EA
100
AcDbEntity
  8
0
100
AcDbBlockBegin
  2
*D20
 70
     1
 10
0.0
 20
0.0
 30
0.0
  3
*D20
  1

  0
LINE
  5
1EC
330
1EA
100
AcDbEntity
  8
0
100
AcDbLine
 10
231.2877333077185
 20
192.0252608491579
 30
0.0
 11
251.0033849956835
 21
206.0305215967694
 31
0.0
  0
LINE
  5
1ED
330
1EA
100
AcDbEntity
  8
0
100
AcDbLine
 10
251.0033849956835
 20
206.0305215967694
 30
0.0
 11
264.1422629484394
 21
206.0305215967694
 31
0.0
  0
SOLID
  5
1EE
330
1EA
100
AcDbEntity
  8
0
100
AcDbTrace
 10
231.0464339688328
 20
192.3649456150283
 30
0.0
 11
231.5290326466041
 21
191.6855760832875
 31
0.0
 12
229.249624712496
 22
190.5774648158437
 32
0.0
 13
229.249624712496
 23
190.5774648158437
 33
0.0
  0
MTEXT
  5
1EF
330
1EA
100
AcDbEntity
  8
0
 62
     2
100
AcDbMText
 10
258.3228239720614
 20
209.2808660849585
 30
0.0
 40
3.5
 41
0.0
 71
     5
 72
     1
  1
2-Φ11
 73
     1
 44
1.0
1001
ACAD
1000
MTEXTBEGIN
1070
    73
1070
     1
1070
    44
1040
1.0
1070
    74
1070
     0
1000
MTEXTEND
  0
POINT
  5
1F0
330
1EA
100
AcDbEntity
  8
DEFPOINTS
 62
     0
100
AcDbPoint
 10
229.249624712496
 20
190.5774648158437
 30
0.0
  0
POINT
  5
1F1
330
1EA
100
AcDbEntity
  8
DEFPOINTS
 62
     0
100
AcDbPoint
 10
226.9612686252949
 20
188.9519023342242
 30
0.0
  0
ENDBLK
  5
1F2
330
1EA
100
AcDbEntity
  8
0
100
AcDbBlockEnd
  0
BLOCK
  5
1F4
330
1F3
100
AcDbEntity
  8
0
100
AcDbBlockBegin
  2
*D21
 70
     1
 10
0.0
 20
0.0
 30
0.0
  3
*D21
  1

  0
LINE
  5
1F5
330
1F3
100
AcDbEntity
  8
0
100
AcDbLine
 10
176.4528822129023
 20
166.4424317354372
 30
0.0
 11
148.3174150463063
 21
148.2479964067128
 31
0.0
  0
LINE
  5
1F6
330
1F3
100
AcDbEntity
  8
0
100
AcDbLine
 10
148.3174150463063
 20
148.2479964067128
 30
0.0
 11
136.1724402994757
 21
148.2479964067128
 31
0.0
  0
SOLID
  5
1F7
330
1F3
100
AcDbEntity
  8
0
100
AcDbTrace
 10
176.226622777547
 20
166.7923142571839
 30
0.0
 11
176.6791416482576
 21
166.0925492136905
 31
0.0
 12
178.5521773433824
 22
167.7999883475689
 32
0.0
 13
178.5521773433824
 23
167.7999883475689
 33
0.0
  0
MTEXT
  5
1F8
330
1F3
100
AcDbEntity
  8
0
 62
     2
100
AcDbMText
 10
141.494927672891
 20
151.4979964067128
 30
0.0
 40
3.5
 41
0.0
 71
     5
 72
     1
  1
8-Φ5
 73
     1
 44
1.0
1001
ACAD
1000
MTEXTBEGIN
1070
    73
1070
     1
1070
    44
1040
1.0
1070
    74
1070
     0
1000
MTEXTEND
  0
POINT
  5
1F9
330
1F3
100
AcDbEntity
  8
DEFPOINTS
 62
     0
100
AcDbPoint
 10
178.5521773433824
 20
167.7999883475689
 30
0.0
  0
POINT
  5
1FA
330
1F3
100
AcDbEntity
  8
DEFPOINTS
 62
     0
100
AcDbPoint
 10
180.148846072127
 20
168.8325102443807
 30
0.0
  0
ENDBLK
  5
1FB
330
1F3
100
AcDbEntity
  8
0
100
AcDbBlockEnd
  0
BLOCK
  5
1FD
330
1FC
100
AcDbEntity
  8
0
100
AcDbBlockBegin
  2
*D22
 70
     1
 10
0.0
 20
0.0
 30
0.0
  3
*D22
  1

  0
LINE
  5
1FE
330
1FC
100
AcDbEntity
  8
AM_5
100
AcDbLine
 10
162.5825108941753
 20
114.4798337849619
 30
0.0
 11
162.5825108941753
 21
126.5387478062544
 31
0.0
  0
LINE
  5
1FF
330
1FC
100
AcDbEntity
  8
AM_5
100
AcDbLine
 10
219.0811906741995
 20
114.5387478062545
 30
0.0
 11
219.0811906741995
 21
126.5387478062544
 31
0.0
  0
LINE
  5
200
330
1FC
100
AcDbEntity
  8
AM_5
100
AcDbLine
 10
165.0825108941753
 20
125.5387478062544
 30
0.0
 11
216.5811906741995
 21
125.5387478062544
 31
0.0
  0
SOLID
  5
201
330
1FC
100
AcDbEntity
  8
AM_5
100
AcDbTrace
 10
165.0825108941753
 20
125.9554144729211
 30
0.0
 11
165.0825108941753
 21
125.1220811395877
 31
0.0
 12
162.5825108941753
 22
125.5387478062544
 32
0.0
 13
162.5825108941753
 23
125.5387478062544
 33
0.0
  0
SOLID
  5
202
330
1FC
100
AcDbEntity
  8
AM_5
100
AcDbTrace
 10
216.5811906741995
 20
125.9554144729211
 30
0.0
 11
216.5811906741995
 21
125.1220811395877
 31
0.0
 12
219.0811906741995
 22
125.5387478062544
 32
0.0
 13
219.0811906741995
 23
125.5387478062544
 33
0.0
  0
MTEXT
  5
203
330
1FC
100
AcDbEntity
  8
AM_5
 62
     2
100
AcDbMText
 10
190.8318507841874
 20
128.7887478062544
 30
0.0
 40
3.5
 41
0.0
 71
     5
 72
     1
  1
115
 73
     1
 44
1.0
1001
ACAD
1000
MTEXTBEGIN
1070
    73
1070
     1
1070
    44
1040
1.0
1070
    74
1070
     0
1000
MTEXTEND
  0
POINT
  5
204
330
1FC
100
AcDbEntity
  8
DEFPOINTS
 62
     0
100
AcDbPoint
 10
162.5825108941753
 20
113.4798337849619
 30
0.0
  0
POINT
  5
205
330
1FC
100
AcDbEntity
  8
DEFPOINTS
 62
     0
100
AcDbPoint
 10
219.0811906741995
 20
113.5387478062545
 30
0.0
  0
POINT
  5
206
330
1FC
100
AcDbEntity
  8
DEFPOINTS
 62
     0
100
AcDbPoint
 10
219.0811906741995
 20
125.5387478062544
 30
0.0
  0
ENDBLK
  5
207
330
1FC
100
AcDbEntity
  8
0
100
AcDbBlockEnd
  0
BLOCK
  5
209
330
208
100
AcDbEntity
  8
0
100
AcDbBlockBegin
  2
*D23
 70
     1
 10
0.0
 20
0.0
 30
0.0
  3
*D23
  1

  0
LINE
  5
20A
330
208
100
AcDbEntity
  8
AM_5
100
AcDbLine
 10
231.8504275608419
 20
114.5139402302744
 30
0.0
 11
231.8504275608419
 21
126.5387478062544
 31
0.0
  0
LINE
  5
20B
330
208
100
AcDbEntity
  8
AM_5
100
AcDbLine
 10
219.0835737468347
 20
114.5480479468211
 30
0.0
 11
219.0835737468347
 21
126.5387478062544
 31
0.0
  0
LINE
  5
20C
330
208
100
AcDbEntity
  8
AM_5
100
AcDbLine
 10
229.3504275608419
 20
125.5387478062544
 30
0.0
 11
221.5835737468347
 21
125.5387478062544
 31
0.0
  0
SOLID
  5
20D
330
208
100
AcDbEntity
  8
AM_5
100
AcDbTrace
 10
229.3504275608419
 20
125.9554144729211
 30
0.0
 11
229.3504275608419
 21
125.1220811395877
 31
0.0
 12
231.8504275608419
 22
125.5387478062544
 32
0.0
 13
231.8504275608419
 23
125.5387478062544
 33
0.0
  0
SOLID
  5
20E
330
208
100
AcDbEntity
  8
AM_5
100
AcDbTrace
 10
221.5835737468347
 20
125.9554144729211
 30
0.0
 11
221.5835737468347
 21
125.1220811395877
 31
0.0
 12
219.0835737468347
 22
125.5387478062544
 32
0.0
 13
219.0835737468347
 23
125.5387478062544
 33
0.0
  0
MTEXT
  5
20F
330
208
100
AcDbEntity
  8
AM_5
 62
     2
100
AcDbMText
 10
225.4670006538383
 20
128.7890922944433
 30
0.0
 40
3.5
 41
0.0
 71
     5
 72
     1
  1
26
 73
     1
 44
1.0
1001
ACAD
1000
MTEXTBEGIN
1070
    73
1070
     1
1070
    44
1040
1.0
1070
    74
1070
     0
1000
MTEXTEND
  0
POINT
  5
210
330
208
100
AcDbEntity
  8
DEFPOINTS
 62
     0
100
AcDbPoint
 10
231.8504275608419
 20
113.5139402302744
 30
0.0
  0
POINT
  5
211
330
208
100
AcDbEntity
  8
DEFPOINTS
 62
     0
100
AcDbPoint
 10
219.0835737468347
 20
113.5480479468211
 30
0.0
  0
POINT
  5
212
330
208
100
AcDbEntity
  8
DEFPOINTS
 62
     0
100
AcDbPoint
 10
219.0835737468347
 20
125.5387478062544
 30
0.0
  0
ENDBLK
  5
213
330
208
100
AcDbEntity
  8
0
100
AcDbBlockEnd
  0
BLOCK
  5
5C9
330
5C8
100
AcDbEntity
  8
0
100
AcDbBlockBegin
  2
*D24
 70
     1
 10
0.0
 20
0.0
 30
0.0
  3
*D24
  1

  0
LINE
  5
83B
330
5C8
100
AcDbEntity
  8
AM_5
100
AcDbLine
 10
-141.367998836023
 20
185.1909925265162
 30
0.0
 11
-181.2227534487016
 21
185.1909925265162
 31
0.0
  0
LINE
  5
83C
330
5C8
100
AcDbEntity
  8
AM_5
100
AcDbLine
 10
-141.367998836023
 20
145.7129715575493
 30
0.0
 11
-181.2227534487016
 21
145.7129715575493
 31
0.0
  0
LINE
  5
83D
330
5C8
100
AcDbEntity
  8
AM_5
100
AcDbLine
 10
-180.2227534487015
 20
182.6909925265162
 30
0.0
 11
-180.2227534487015
 21
148.2129715575493
 31
0.0
  0
SOLID
  5
83E
330
5C8
100
AcDbEntity
  8
AM_5
100
AcDbTrace
 10
-180.6394201153683
 20
182.6909925265162
 30
0.0
 11
-179.806086782035
 21
182.6909925265162
 31
0.0
 12
-180.2227534487015
 22
185.1909925265162
 32
0.0
 13
-180.2227534487015
 23
185.1909925265162
 33
0.0
  0
SOLID
  5
83F
330
5C8
100
AcDbEntity
  8
AM_5
100
AcDbTrace
 10
-180.6394201153683
 20
148.2129715575493
 30
0.0
 11
-179.806086782035
 21
148.2129715575493
 31
0.0
 12
-180.2227534487015
 22
145.7129715575493
 32
0.0
 13
-180.2227534487015
 23
145.7129715575493
 33
0.0
  0
MTEXT
  5
840
330
5C8
100
AcDbEntity
  8
AM_5
 62
     2
100
AcDbMText
 10
-183.4727534487017
 20
165.4519820420327
 30
0.0
 40
3.5
 41
0.0
 71
     5
 72
     1
  1
85
 11
0.0000000000000001
 21
1.0
 31
0.0
 73
     1
 44
1.0
1001
ACAD
1000
MTEXTBEGIN
1070
    73
1070
     1
1070
    44
1040
1.0
1070
    74
1070
     0
1000
MTEXTEND
  0
POINT
  5
841
330
5C8
100
AcDbEntity
  8
DEFPOINTS
 62
     0
100
AcDbPoint
 10
-140.367998836023
 20
185.1909925265162
 30
0.0
  0
POINT
  5
842
330
5C8
100
AcDbEntity
  8
DEFPOINTS
 62
     0
100
AcDbPoint
 10
-140.367998836023
 20
145.7129715575493
 30
0.0
  0
POINT
  5
843
330
5C8
100
AcDbEntity
  8
DEFPOINTS
 62
     0
100
AcDbPoint
 10
-180.2227534487015
 20
145.7129715575493
 30
0.0
  0
ENDBLK
  5
5CA
330
5C8
100
AcDbEntity
  8
0
100
AcDbBlockEnd
  0
BLOCK
  5
5D5
330
5D4
100
AcDbEntity
  8
0
100
AcDbBlockBegin
  2
*D25
 70
     1
 10
0.0
 20
0.0
 30
0.0
  3
*D25
  1

  0
LINE
  5
844
330
5D4
100
AcDbEntity
  8
AM_5
100
AcDbLine
 10
-136.9988504799033
 20
141.8275662841118
 30
0.0
 11
-136.9988504799033
 21
126.3407287886024
 31
0.0
  0
LINE
  5
845
330
5D4
100
AcDbEntity
  8
AM_5
100
AcDbLine
 10
-113.8189733640179
 20
141.8275662841118
 30
0.0
 11
-113.8189733640179
 21
126.3407287886024
 31
0.0
  0
LINE
  5
846
330
5D4
100
AcDbEntity
  8
AM_5
100
AcDbLine
 10
-134.4988504799032
 20
127.3407287886024
 30
0.0
 11
-116.3189733640179
 21
127.3407287886024
 31
0.0
  0
SOLID
  5
847
330
5D4
100
AcDbEntity
  8
AM_5
100
AcDbTrace
 10
-134.4988504799032
 20
127.757395455269
 30
0.0
 11
-134.4988504799032
 21
126.9240621219357
 31
0.0
 12
-136.9988504799033
 22
127.3407287886024
 32
0.0
 13
-136.9988504799033
 23
127.3407287886024
 33
0.0
  0
SOLID
  5
848
330
5D4
100
AcDbEntity
  8
AM_5
100
AcDbTrace
 10
-116.3189733640179
 20
127.757395455269
 30
0.0
 11
-116.3189733640179
 21
126.9240621219357
 31
0.0
 12
-113.8189733640179
 22
127.3407287886024
 32
0.0
 13
-113.8189733640179
 23
127.3407287886024
 33
0.0
  0
MTEXT
  5
849
330
5D4
100
AcDbEntity
  8
AM_5
 62
     2
100
AcDbMText
 10
-125.4089119219606
 20
130.5907287886024
 30
0.0
 40
3.5
 41
0.0
 71
     5
 72
     1
  1
40
 73
     1
 44
1.0
1001
ACAD
1000
MTEXTBEGIN
1070
    73
1070
     1
1070
    44
1040
1.0
1070
    74
1070
     0
1000
MTEXTEND
  0
POINT
  5
84A
330
5D4
100
AcDbEntity
  8
DEFPOINTS
 62
     0
100
AcDbPoint
 10
-136.9988504799033
 20
142.8275662841118
 30
0.0
  0
POINT
  5
84B
330
5D4
100
AcDbEntity
  8
DEFPOINTS
 62
     0
100
AcDbPoint
 10
-113.8189733640179
 20
142.8275662841118
 30
0.0
  0
POINT
  5
84C
330
5D4
100
AcDbEntity
  8
DEFPOINTS
 62
     0
100
AcDbPoint
 10
-113.8189733640179
 20
127.3407287886024
 30
0.0
  0
ENDBLK
  5
5D6
330
5D4
100
AcDbEntity
  8
0
100
AcDbBlockEnd
  0
BLOCK
  5
5E1
330
5E0
100
AcDbEntity
  8
0
100
AcDbBlockBegin
  2
*D26
 70
     1
 10
0.0
 20
0.0
 30
0.0
  3
*D26
  1

  0
LINE
  5
903
330
5E0
100
AcDbEntity
  8
AM_5
100
AcDbLine
 10
-126.2683537215949
 20
148.0057942464153
 30
0.0
 11
-128.2608077306217
 21
140.5337770483186
 31
0.0
  0
LINE
  5
904
330
5E0
100
AcDbEntity
  8
AM_5
100
AcDbLine
 10
-114.0766258841383
 20
144.7467339165541
 30
0.0
 11
-116.0670708829271
 21
137.282250824129
 31
0.0
  0
LINE
  5
905
330
5E0
100
AcDbEntity
  8
AM_5
100
AcDbLine
 10
-125.5875611080138
 20
140.8558833890125
 30
0.0
 11
-118.2250124652941
 21
138.8926197654252
 31
0.0
  0
SOLID
  5
906
330
5E0
100
AcDbEntity
  8
AM_5
100
AcDbTrace
 10
-125.4802058912969
 20
141.2584824060937
 30
0.0
 11
-125.6949163247305
 21
140.4532843719312
 31
0.0
 12
-128.0031552105012
 22
141.5000146893136
 32
0.0
 13
-128.0031552105012
 23
141.5000146893136
 33
0.0
  0
SOLID
  5
907
330
5E0
100
AcDbEntity
  8
AM_5
100
AcDbTrace
 10
-118.1176572485773
 20
139.2952187825064
 30
0.0
 11
-118.332367682011
 21
138.490020748344
 31
0.0
 12
-115.8094183628066
 22
138.248488465124
 32
0.0
 13
-115.8094183628066
 23
138.248488465124
 33
0.0
  0
MTEXT
  5
908
330
5E0
100
AcDbEntity
  8
AM_5
 62
     2
100
AcDbMText
 10
-121.0688273380124
 20
143.0148567679076
 30
0.0
 40
3.5
 41
0.0
 71
     5
 72
     1
  1
20
 11
0.9662376409949944
 21
-0.257652520120468
 31
0.0
 73
     1
 44
1.0
1001
ACAD
1000
MTEXTBEGIN
1070
    73
1070
     1
1070
    44
1040
1.0
1070
    74
1070
     0
1000
MTEXTEND
  0
POINT
  5
909
330
5E0
100
AcDbEntity
  8
DEFPOINTS
 62
     0
100
AcDbPoint
 10
-126.0107012014744
 20
148.9720318874103
 30
0.0
  0
POINT
  5
90A
330
5E0
100
AcDbEntity
  8
DEFPOINTS
 62
     0
100
AcDbPoint
 10
-113.8189733640178
 20
145.7129715575492
 30
0.0
  0
POINT
  5
90B
330
5E0
100
AcDbEntity
  8
DEFPOINTS
 62
     0
100
AcDbPoint
 10
-115.8094183628066
 20
138.248488465124
 30
0.0
  0
ENDBLK
  5
5E2
330
5E0
100
AcDbEntity
  8
0
100
AcDbBlockEnd
  0
BLOCK
  5
5ED
330
5EC
100
AcDbEntity
  8
0
100
AcDbBlockBegin
  2
*D27
 70
     1
 10
0.0
 20
0.0
 30
0.0
  3
*D27
  1

  0
LINE
  5
856
330
5EC
100
AcDbEntity
  8
AM_5
100
AcDbLine
 10
-145.4657590889937
 20
179.8835799482739
 30
0.0
 11
-152.5931022554861
 21
175.673013312307
 31
0.0
  0
LINE
  5
857
330
5EC
100
AcDbEntity
  8
AM_5
100
AcDbLine
 10
-126.9038946684207
 20
148.4633961646367
 30
0.0
 11
-134.0312378349132
 21
144.2528295286699
 31
0.0
  0
LINE
  5
858
330
5EC
100
AcDbEntity
  8
AM_5
100
AcDbLine
 10
-150.460531124401
 20
174.0291944747029
 30
0.0
 11
-134.4418453176962
 21
146.9139198118211
 31
0.0
  0
SOLID
  5
859
330
5EC
100
AcDbEntity
  8
AM_5
100
AcDbTrace
 10
-150.1017886976713
 20
174.2411260258586
 30
0.0
 11
-150.8192735511306
 21
173.8172629235473
 31
0.0
 12
-151.732120431335
 22
176.1816490350807
 32
0.0
 13
-151.732120431335
 23
176.1816490350807
 33
0.0
  0
SOLID
  5
85A
330
5EC
100
AcDbEntity
  8
AM_5
100
AcDbTrace
 10
-134.0831028909665
 20
147.1258513629769
 30
0.0
 11
-134.8005877444258
 21
146.7019882606656
 31
0.0
 12
-133.1702560107621
 22
144.7614652514435
 32
0.0
 13
-133.1702560107621
 23
144.7614652514435
 33
0.0
  0
MTEXT
  5
85B
330
5EC
100
AcDbEntity
  8
AM_5
 62
     2
100
AcDbMText
 10
-139.6529972925574
 20
162.1246232422763
 30
0.0
 40
3.5
 41
0.0
 71
     5
 72
     1
  1
77
 11
0.5086357227736201
 21
-0.8609818241511009
 31
0.0
 73
     1
 44
1.0
1001
ACAD
1000
MTEXTBEGIN
1070
    73
1070
     1
1070
    44
1040
1.0
1070
    74
1070
     0
1000
MTEXTEND
  0
POINT
  5
85C
330
5EC
100
AcDbEntity
  8
DEFPOINTS
 62
     0
100
AcDbPoint
 10
-144.6047772648426
 20
180.3922156710475
 30
0.0
  0
POINT
  5
85D
330
5EC
100
AcDbEntity
  8
DEFPOINTS
 62
     0
100
AcDbPoint
 10
-126.0429128442696
 20
148.9720318874104
 30
0.0
  0
POINT
  5
85E
330
5EC
100
AcDbEntity
  8
DEFPOINTS
 62
     0
100
AcDbPoint
 10
-133.1702560107621
 20
144.7614652514435
 30
0.0
  0
ENDBLK
  5
5EE
330
5EC
100
AcDbEntity
  8
0
100
AcDbBlockEnd
  0
BLOCK
  5
5F9
330
5F8
100
AcDbEntity
  8
0
100
AcDbBlockBegin
  2
*D28
 70
     1
 10
0.0
 20
0.0
 30
0.0
  3
*D28
  1

  0
LINE
  5
85F
330
5F8
100
AcDbEntity
  8
AM_5
100
AcDbLine
 10
-107.0377741727539
 20
180.2848141101589
 30
0.0
 11
-98.07304734022146
 21
178.7868152754805
 31
0.0
  0
LINE
  5
860
330
5F8
100
AcDbEntity
  8
AM_5
100
AcDbLine
 10
-112.8326487115995
 20
145.6055699966606
 30
0.0
 11
-103.867921879067
 21
144.1075711619822
 31
0.0
  0
LINE
  5
861
330
5F8
100
AcDbEntity
  8
AM_5
100
AcDbLine
 10
-99.47140718555159
 20
176.4858177215991
 30
0.0
 11
-104.4422113385737
 21
146.738196870193
 31
0.0
  0
SOLID
  5
862
330
5F8
100
AcDbEntity
  8
AM_5
100
AcDbTrace
 10
-99.88237579072595
 20
176.5544902537511
 30
0.0
 11
-99.06043858037728
 21
176.4171451894471
 31
0.0
 12
-99.05937199263988
 22
178.9516293526452
 32
0.0
 13
-99.05937199263988
 23
178.9516293526452
 33
0.0
  0
SOLID
  5
863
330
5F8
100
AcDbEntity
  8
AM_5
100
AcDbTrace
 10
-104.8531799437481
 20
146.8068694023449
 30
0.0
 11
-104.0312427333994
 21
146.669524338041
 31
0.0
 12
-104.8542465314854
 22
144.2723852391469
 32
0.0
 13
-104.8542465314854
 23
144.2723852391469
 33
0.0
  0
MTEXT
  5
864
330
5F8
100
AcDbEntity
  8
AM_5
 62
     2
100
AcDbMText
 10
-105.1623643824226
 20
162.1476530466813
 30
0.0
 40
3.5
 41
0.0
 71
     5
 72
     1
  1
78
 11
0.1648140771646925
 21
0.9863246524184372
 31
0.0
 73
     1
 44
1.0
1001
ACAD
1000
MTEXTBEGIN
1070
    73
1070
     1
1070
    44
1040
1.0
1070
    74
1070
     0
1000
MTEXTEND
  0
POINT
  5
865
330
5F8
100
AcDbEntity
  8
DEFPOINTS
 62
     0
100
AcDbPoint
 10
-108.0240988251723
 20
180.4496281873236
 30
0.0
  0
POINT
  5
866
330
5F8
100
AcDbEntity
  8
DEFPOINTS
 62
     0
100
AcDbPoint
 10
-113.818973364018
 20
145.7703840738253
 30
0.0
  0
POINT
  5
867
330
5F8
100
AcDbEntity
  8
DEFPOINTS
 62
     0
100
AcDbPoint
 10
-104.8542465314854
 20
144.2723852391469
 30
0.0
  0
ENDBLK
  5
5FA
330
5F8
100
AcDbEntity
  8
0
100
AcDbBlockEnd
  0
BLOCK
  5
605
330
604
100
AcDbEntity
  8
0
100
AcDbBlockBegin
  2
*D29
 70
     1
 10
0.0
 20
0.0
 30
0.0
  3
*D29
  1

  0
LINE
  5
868
330
604
100
AcDbEntity
  8
AM_5
100
AcDbLine
 10
-114.5247829200255
 20
186.0181278500256
 30
0.0
 11
-104.783181001139
 21
200.355463775824
 31
0.0
  0
LINE
  5
869
330
604
100
AcDbEntity
  8
AM_5
100
AcDbLine
 10
-107.4620960168138
 20
181.219350994557
 30
0.0
 11
-97.7205008573398
 21
195.5566769720974
 31
0.0
  0
LINE
  5
86A
330
604
100
AcDbEntity
  8
AM_5
100
AcDbLine
 10
-103.2773455007239
 20
198.1233214314182
 30
0.0
 11
-100.350341974472
 21
196.1345486694843
 31
0.0
  0
SOLID
  5
86B
330
604
100
AcDbEntity
  8
AM_5
100
AcDbTrace
 10
-103.0431776639079
 20
198.4679611495471
 30
0.0
 11
-103.51151333754
 21
197.7786817132892
 31
0.0
 12
-105.3451838094976
 22
199.5283284523145
 32
0.0
 13
-105.3451838094976
 23
199.5283284523145
 33
0.0
  0
SOLID
  5
86C
330
604
100
AcDbEntity
  8
AM_5
100
AcDbTrace
 10
-100.1161741376559
 20
196.4791883876133
 30
0.0
 11
-100.5845098112881
 21
195.7899089513554
 31
0.0
 12
-98.28250366569836
 22
194.729541648588
 32
0.0
 13
-98.28250366569836
 23
194.729541648588
 33
0.0
  0
MTEXT
  5
86D
330
604
100
AcDbEntity
  8
AM_5
 62
     2
100
AcDbMText
 10
-99.98733461043272
 20
199.817124851857
 30
0.0
 40
3.5
 41
0.0
 71
     5
 72
     1
  1
18
 11
0.8271353235094624
 21
-0.5620028083585501
 31
0.0
 73
     1
 44
1.0
1001
ACAD
1000
MTEXTBEGIN
1070
    73
1070
     1
1070
    44
1040
1.0
1070
    74
1070
     0
1000
MTEXTEND
  0
POINT
  5
86E
330
604
100
AcDbEntity
  8
DEFPOINTS
 62
     0
100
AcDbPoint
 10
-115.0867857283841
 20
185.1909925265162
 30
0.0
  0
POINT
  5
86F
330
604
100
AcDbEntity
  8
DEFPOINTS
 62
     0
100
AcDbPoint
 10
-108.0240988251723
 20
180.3922156710475
 30
0.0
  0
POINT
  5
870
330
604
100
AcDbEntity
  8
DEFPOINTS
 62
     0
100
AcDbPoint
 10
-98.28250366569836
 20
194.729541648588
 30
0.0
  0
ENDBLK
  5
606
330
604
100
AcDbEntity
  8
0
100
AcDbBlockEnd
  0
BLOCK
  5
611
330
610
100
AcDbEntity
  8
0
100
AcDbBlockBegin
  2
*D30
 70
     1
 10
0.0
 20
0.0
 30
0.0
  3
*D30
  1

  0
LINE
  5
871
330
610
100
AcDbEntity
  8
AM_5
100
AcDbLine
 10
-126.2352089876762
 20
182.9422221809095
 30
0.0
 11
-127.8850252411146
 21
174.5227832472603
 31
0.0
  0
LINE
  5
872
330
610
100
AcDbEntity
  8
AM_5
100
AcDbLine
 10
-108.2163949685791
 20
179.4108787293038
 30
0.0
 11
-109.866117124128
 21
170.9919200015152
 31
0.0
  0
LINE
  5
873
330
610
100
AcDbEntity
  8
AM_5
100
AcDbLine
 10
-125.2393867433487
 20
175.0233798304875
 30
0.0
 11
-112.1271633350807
 21
172.4539973017755
 31
0.0
  0
SOLID
  5
874
330
610
100
AcDbEntity
  8
AM_5
100
AcDbTrace
 10
-125.1592633502626
 20
175.4322702228806
 30
0.0
 11
-125.3195101364348
 21
174.6144894380942
 31
0.0
 12
-127.692729097708
 22
175.5041201890039
 32
0.0
 13
-127.692729097708
 23
175.5041201890039
 33
0.0
  0
SOLID
  5
875
330
610
100
AcDbEntity
  8
AM_5
100
AcDbTrace
 10
-112.0470399419946
 20
172.8628876941687
 30
0.0
 11
-112.2072867281668
 21
172.0451069093823
 31
0.0
 12
-109.6738209807214
 22
171.973256943259
 32
0.0
 13
-109.6738209807214
 23
171.973256943259
 33
0.0
  0
MTEXT
  5
876
330
610
100
AcDbEntity
  8
AM_5
 62
     2
100
AcDbMText
 10
-118.0583125731432
 20
176.9280336267986
 30
0.0
 40
3.5
 41
0.0
 71
     5
 72
     1
  1
36
 11
0.9813369417437316
 21
-0.1922961434066218
 31
0.0
 73
     1
 44
1.0
1001
ACAD
1000
MTEXTBEGIN
1070
    73
1070
     1
1070
    44
1040
1.0
1070
    74
1070
     0
1000
MTEXTEND
  0
POINT
  5
877
330
610
100
AcDbEntity
  8
DEFPOINTS
 62
     0
100
AcDbPoint
 10
-126.0429128442696
 20
183.9235591226534
 30
0.0
  0
POINT
  5
878
330
610
100
AcDbEntity
  8
DEFPOINTS
 62
     0
100
AcDbPoint
 10
-108.0240988251725
 20
180.3922156710475
 30
0.0
  0
POINT
  5
879
330
610
100
AcDbEntity
  8
DEFPOINTS
 62
     0
100
AcDbPoint
 10
-109.6738209807214
 20
171.973256943259
 30
0.0
  0
ENDBLK
  5
612
330
610
100
AcDbEntity
  8
0
100
AcDbBlockEnd
  0
BLOCK
  5
61D
330
61C
100
AcDbEntity
  8
0
100
AcDbBlockBegin
  2
*D31
 70
     1
 10
0.0
 20
0.0
 30
0.0
  3
*D31
  1

  0
LINE
  5
87A
330
61C
100
AcDbEntity
  8
AM_5
100
AcDbLine
 10
-136.8839452970595
 20
186.1843689903786
 30
0.0
 11
-135.6677997021135
 21
196.6981715948442
 31
0.0
  0
LINE
  5
87B
330
61C
100
AcDbEntity
  8
AM_5
100
AcDbLine
 10
-125.9267501405775
 20
184.9169355865158
 30
0.0
 11
-124.7106045456315
 21
195.4307381909814
 31
0.0
  0
LINE
  5
87C
330
61C
100
AcDbEntity
  8
AM_5
100
AcDbLine
 10
-133.2992637253014
 20
195.4175321738724
 30
0.0
 11
-127.3089508881311
 21
194.7246246842284
 31
0.0
  0
SOLID
  5
87D
330
61C
100
AcDbEntity
  8
AM_5
100
AcDbTrace
 10
-133.2513865657832
 20
195.8314390338151
 30
0.0
 11
-133.3471408848196
 21
195.0036253139298
 31
0.0
 12
-135.7827048849572
 22
195.7047951309818
 32
0.0
 13
-135.7827048849572
 23
195.7047951309818
 33
0.0
  0
SOLID
  5
87E
330
61C
100
AcDbEntity
  8
AM_5
100
AcDbTrace
 10
-127.2610737286129
 20
195.1385315441711
 30
0.0
 11
-127.3568280476493
 21
194.3107178242858
 31
0.0
 12
-124.8255097284753
 22
194.4373617271191
 32
0.0
 13
-124.8255097284753
 23
194.4373617271191
 33
0.0
  0
MTEXT
  5
87F
330
61C
100
AcDbEntity
  8
AM_5
 62
     2
100
AcDbMText
 10
-129.9306258789957
 20
198.2998941430619
 30
0.0
 40
3.5
 41
0.0
 71
     5
 72
     1
  1
20
 11
0.9933764638623387
 21
-0.1149051828437499
 31
0.0
 73
     1
 44
1.0
1001
ACAD
1000
MTEXTBEGIN
1070
    73
1070
     1
1070
    44
1040
1.0
1070
    74
1070
     0
1000
MTEXTEND
  0
POINT
  5
880
330
61C
100
AcDbEntity
  8
DEFPOINTS
 62
     0
100
AcDbPoint
 10
-136.9988504799033
 20
185.1909925265162
 30
0.0
  0
POINT
  5
881
330
61C
100
AcDbEntity
  8
DEFPOINTS
 62
     0
100
AcDbPoint
 10
-126.0416553234213
 20
183.9235591226535
 30
0.0
  0
POINT
  5
882
330
61C
100
AcDbEntity
  8
DEFPOINTS
 62
     0
100
AcDbPoint
 10
-124.8255097284753
 20
194.4373617271191
 30
0.0
  0
ENDBLK
  5
61E
330
61C
100
AcDbEntity
  8
0
100
AcDbBlockEnd
  0
BLOCK
  5
629
330
628
100
AcDbEntity
  8
0
100
AcDbBlockBegin
  2
*D32
 70
     1
 10
0.0
 20
0.0
 30
0.0
  3
*D32
  1

  0
LINE
  5
883
330
628
100
AcDbEntity
  8
AM_5
100
AcDbLine
 10
-130.9410900632367
 20
183.9235591226534
 30
0.0
 11
-174.7838497528571
 21
183.9235591226534
 31
0.0
  0
LINE
  5
884
330
628
100
AcDbEntity
  8
AM_5
100
AcDbLine
 10
-131.2414162622383
 20
148.9720318874103
 30
0.0
 11
-174.7838497528571
 21
148.9720318874103
 31
0.0
  0
LINE
  5
885
330
628
100
AcDbEntity
  8
AM_5
100
AcDbLine
 10
-173.7838497528571
 20
181.4235591226534
 30
0.0
 11
-173.7838497528571
 21
151.4720318874103
 31
0.0
  0
SOLID
  5
886
330
628
100
AcDbEntity
  8
AM_5
100
AcDbTrace
 10
-174.2005164195237
 20
181.4235591226534
 30
0.0
 11
-173.3671830861904
 21
181.4235591226534
 31
0.0
 12
-173.7838497528571
 22
183.9235591226534
 32
0.0
 13
-173.7838497528571
 23
183.9235591226534
 33
0.0
  0
SOLID
  5
887
330
628
100
AcDbEntity
  8
AM_5
100
AcDbTrace
 10
-174.2005164195237
 20
151.4720318874103
 30
0.0
 11
-173.3671830861904
 21
151.4720318874103
 31
0.0
 12
-173.7838497528571
 22
148.9720318874103
 32
0.0
 13
-173.7838497528571
 23
148.9720318874103
 33
0.0
  0
MTEXT
  5
888
330
628
100
AcDbEntity
  8
AM_5
 62
     2
100
AcDbMText
 10
-177.0338497528571
 20
166.4477955050318
 30
0.0
 40
3.5
 41
0.0
 71
     5
 72
     1
  1
75
 11
0.0000000000000001
 21
1.0
 31
0.0
 73
     1
 44
1.0
1001
ACAD
1000
MTEXTBEGIN
1070
    73
1070
     1
1070
    44
1040
1.0
1070
    74
1070
     0
1000
MTEXTEND
  0
POINT
  5
889
330
628
100
AcDbEntity
  8
DEFPOINTS
 62
     0
100
AcDbPoint
 10
-129.9410900632367
 20
183.9235591226534
 30
0.0
  0
POINT
  5
88A
330
628
100
AcDbEntity
  8
DEFPOINTS
 62
     0
100
AcDbPoint
 10
-130.2414162622383
 20
148.9720318874103
 30
0.0
  0
POINT
  5
88B
330
628
100
AcDbEntity
  8
DEFPOINTS
 62
     0
100
AcDbPoint
 10
-173.7838497528571
 20
148.9720318874103
 30
0.0
  0
ENDBLK
  5
62A
330
628
100
AcDbEntity
  8
0
100
AcDbBlockEnd
  0
BLOCK
  5
635
330
634
100
AcDbEntity
  8
0
100
AcDbBlockBegin
  2
*D33
 70
     1
 10
0.0
 20
0.0
 30
0.0
  3
*D33
  1

  0
LINE
  5
88C
330
634
100
AcDbEntity
  8
AM_5
100
AcDbLine
 10
-167.4225576196602
 20
194.0868240966118
 30
0.0
 11
-167.4225576196602
 21
210.4064553058914
 31
0.0
  0
LINE
  5
88D
330
634
100
AcDbEntity
  8
AM_5
100
AcDbLine
 10
-84.66326806887886
 20
194.0868240966117
 30
0.0
 11
-84.66326806887886
 21
210.4064553058914
 31
0.0
  0
LINE
  5
88E
330
634
100
AcDbEntity
  8
AM_5
100
AcDbLine
 10
-164.9225576196602
 20
209.4064553058914
 30
0.0
 11
-87.16326806887886
 21
209.4064553058914
 31
0.0
  0
SOLID
  5
88F
330
634
100
AcDbEntity
  8
AM_5
100
AcDbTrace
 10
-164.9225576196602
 20
209.823121972558
 30
0.0
 11
-164.9225576196602
 21
208.9897886392247
 31
0.0
 12
-167.4225576196602
 22
209.4064553058914
 32
0.0
 13
-167.4225576196602
 23
209.4064553058914
 33
0.0
  0
SOLID
  5
890
330
634
100
AcDbEntity
  8
AM_5
100
AcDbTrace
 10
-87.16326806887886
 20
209.823121972558
 30
0.0
 11
-87.16326806887886
 21
208.9897886392247
 31
0.0
 12
-84.66326806887886
 22
209.4064553058914
 32
0.0
 13
-84.66326806887886
 23
209.4064553058914
 33
0.0
  0
MTEXT
  5
891
330
634
100
AcDbEntity
  8
AM_5
 62
     2
100
AcDbMText
 10
-126.0429128442695
 20
212.6564553058914
 30
0.0
 40
3.5
 41
0.0
 71
     5
 72
     1
  1
170
 73
     1
 44
1.0
1001
ACAD
1000
MTEXTBEGIN
1070
    73
1070
     1
1070
    44
1040
1.0
1070
    74
1070
     0
1000
MTEXTEND
  0
POINT
  5
892
330
634
100
AcDbEntity
  8
DEFPOINTS
 62
     0
100
AcDbPoint
 10
-167.4225576196602
 20
193.0868240966118
 30
0.0
  0
POINT
  5
893
330
634
100
AcDbEntity
  8
DEFPOINTS
 62
     0
100
AcDbPoint
 10
-84.66326806887886
 20
193.0868240966116
 30
0.0
  0
POINT
  5
894
330
634
100
AcDbEntity
  8
DEFPOINTS
 62
     0
100
AcDbPoint
 10
-84.66326806887886
 20
209.4064553058914
 30
0.0
  0
ENDBLK
  5
636
330
634
100
AcDbEntity
  8
0
100
AcDbBlockEnd
  0
BLOCK
  5
641
330
640
100
AcDbEntity
  8
0
100
AcDbBlockBegin
  2
*D34
 70
     1
 10
0.0
 20
0.0
 30
0.0
  3
*D34
  1

  0
LINE
  5
6DE
330
640
100
AcDbEntity
  8
AM_5
100
AcDbLine
 10
233.4844284831511
 20
216.2063627834427
 30
0.0
 11
247.3648315013802
 21
216.2063627834427
 31
0.0
  0
LINE
  5
6DF
330
640
100
AcDbEntity
  8
AM_5
100
AcDbLine
 10
233.4844284831511
 20
142.2560556934981
 30
0.0
 11
247.3648315013802
 21
142.2560556934981
 31
0.0
  0
LINE
  5
6E0
330
640
100
AcDbEntity
  8
AM_5
100
AcDbLine
 10
246.3648315013802
 20
213.7063627834427
 30
0.0
 11
246.3648315013802
 21
144.7560556934981
 31
0.0
  0
SOLID
  5
6E1
330
640
100
AcDbEntity
  8
AM_5
100
AcDbTrace
 10
245.9481648347136
 20
213.7063627834427
 30
0.0
 11
246.7814981680469
 21
213.7063627834427
 31
0.0
 12
246.3648315013802
 22
216.2063627834427
 32
0.0
 13
246.3648315013802
 23
216.2063627834427
 33
0.0
  0
SOLID
  5
6E2
330
640
100
AcDbEntity
  8
AM_5
100
AcDbTrace
 10
245.9481648347135
 20
144.7560556934981
 30
0.0
 11
246.7814981680469
 21
144.7560556934981
 31
0.0
 12
246.3648315013802
 22
142.2560556934981
 32
0.0
 13
246.3648315013802
 23
142.2560556934981
 33
0.0
  0
MTEXT
  5
6E3
330
640
100
AcDbEntity
  8
AM_5
 62
     2
100
AcDbMText
 10
243.1148315013802
 20
179.2312092384704
 30
0.0
 40
3.5
 41
0.0
 71
     5
 72
     1
  1
113
 11
0.0000000000000001
 21
1.0
 31
0.0
 73
     1
 44
1.0
1001
ACAD
1000
MTEXTBEGIN
1070
    73
1070
     1
1070
    44
1040
1.0
1070
    74
1070
     0
1000
MTEXTEND
  0
POINT
  5
6E4
330
640
100
AcDbEntity
  8
DEFPOINTS
 62
     0
100
AcDbPoint
 10
232.4844284831511
 20
216.2063627834427
 30
0.0
  0
POINT
  5
6E5
330
640
100
AcDbEntity
  8
DEFPOINTS
 62
     0
100
AcDbPoint
 10
232.4844284831511
 20
142.2560556934981
 30
0.0
  0
POINT
  5
6E6
330
640
100
AcDbEntity
  8
DEFPOINTS
 62
     0
100
AcDbPoint
 10
246.3648315013802
 20
142.2560556934981
 30
0.0
  0
ENDBLK
  5
642
330
640
100
AcDbEntity
  8
0
100
AcDbBlockEnd
  0
BLOCK
  5
64D
330
64C
100
AcDbEntity
  8
0
100
AcDbBlockBegin
  2
*D35
 70
     1
 10
0.0
 20
0.0
 30
0.0
  3
*D35
  1

  0
LINE
  5
895
330
64C
100
AcDbEntity
  8
AM_5
100
AcDbLine
 10
-161.2650178789919
 20
160.1599701198322
 30
0.0
 11
-161.2650178789919
 21
118.750686777609
 31
0.0
  0
LINE
  5
896
330
64C
100
AcDbEntity
  8
AM_5
100
AcDbLine
 10
-90.18623844648312
 20
160.1599701198322
 30
0.0
 11
-90.18623844648312
 21
118.750686777609
 31
0.0
  0
LINE
  5
897
330
64C
100
AcDbEntity
  8
AM_5
100
AcDbLine
 10
-158.7650178789918
 20
119.750686777609
 30
0.0
 11
-92.68623844648312
 21
119.750686777609
 31
0.0
  0
SOLID
  5
898
330
64C
100
AcDbEntity
  8
AM_5
100
AcDbTrace
 10
-158.7650178789918
 20
120.1673534442757
 30
0.0
 11
-158.7650178789918
 21
119.3340201109424
 31
0.0
 12
-161.2650178789919
 22
119.750686777609
 32
0.0
 13
-161.2650178789919
 23
119.750686777609
 33
0.0
  0
SOLID
  5
899
330
64C
100
AcDbEntity
  8
AM_5
100
AcDbTrace
 10
-92.68623844648312
 20
120.1673534442757
 30
0.0
 11
-92.68623844648312
 21
119.3340201109424
 31
0.0
 12
-90.18623844648312
 22
119.750686777609
 32
0.0
 13
-90.18623844648312
 23
119.750686777609
 33
0.0
  0
MTEXT
  5
89A
330
64C
100
AcDbEntity
  8
AM_5
 62
     2
100
AcDbMText
 10
-125.7256281627375
 20
123.000686777609
 30
0.0
 40
3.5
 41
0.0
 71
     5
 72
     1
  1
148
 73
     1
 44
1.0
1001
ACAD
1000
MTEXTBEGIN
1070
    73
1070
     1
1070
    44
1040
1.0
1070
    74
1070
     0
1000
MTEXTEND
  0
POINT
  5
89B
330
64C
100
AcDbEntity
  8
DEFPOINTS
 62
     0
100
AcDbPoint
 10
-161.2650178789919
 20
161.1599701198322
 30
0.0
  0
POINT
  5
89C
330
64C
100
AcDbEntity
  8
DEFPOINTS
 62
     0
100
AcDbPoint
 10
-90.18623844648312
 20
161.1599701198322
 30
0.0
  0
POINT
  5
89D
330
64C
100
AcDbEntity
  8
DEFPOINTS
 62
     0
100
AcDbPoint
 10
-90.18623844648312
 20
119.750686777609
 30
0.0
  0
ENDBLK
  5
64E
330
64C
100
AcDbEntity
  8
0
100
AcDbBlockEnd
  0
BLOCK
  5
659
330
658
100
AcDbEntity
  8
0
100
AcDbBlockBegin
  2
*D36
 70
     1
 10
0.0
 20
0.0
 30
0.0
  3
*D36
  1

  0
LINE
  5
89E
330
658
100
AcDbEntity
  8
AM_5
100
AcDbLine
 10
-132.256873727745
 20
76.57931962070033
 30
0.0
 11
-132.256873727745
 21
96.77940353203206
 31
0.0
  0
LINE
  5
89F
330
658
100
AcDbEntity
  8
AM_5
100
AcDbLine
 10
-119.4146342832669
 20
76.62020433422505
 30
0.0
 11
-119.4146342832669
 21
96.77940353203206
 31
0.0
  0
LINE
  5
8A0
330
658
100
AcDbEntity
  8
AM_5
100
AcDbLine
 10
-129.756873727745
 20
95.77940353203207
 30
0.0
 11
-121.9146342832669
 21
95.77940353203207
 31
0.0
  0
SOLID
  5
8A1
330
658
100
AcDbEntity
  8
AM_5
100
AcDbTrace
 10
-129.756873727745
 20
96.19607019869874
 30
0.0
 11
-129.756873727745
 21
95.3627368653654
 31
0.0
 12
-132.256873727745
 22
95.77940353203207
 32
0.0
 13
-132.256873727745
 23
95.77940353203207
 33
0.0
  0
SOLID
  5
8A2
330
658
100
AcDbEntity
  8
AM_5
100
AcDbTrace
 10
-121.9146342832669
 20
96.19607019869874
 30
0.0
 11
-121.9146342832669
 21
95.3627368653654
 31
0.0
 12
-119.4146342832669
 22
95.77940353203207
 32
0.0
 13
-119.4146342832669
 23
95.77940353203207
 33
0.0
  0
MTEXT
  5
8A3
330
658
100
AcDbEntity
  8
AM_5
 62
     2
100
AcDbMText
 10
-125.835754005506
 20
99.02940353203206
 30
0.0
 40
3.5
 41
0.0
 71
     5
 72
     1
  1
18
 73
     1
 44
1.0
1001
ACAD
1000
MTEXTBEGIN
1070
    73
1070
     1
1070
    44
1040
1.0
1070
    74
1070
     0
1000
MTEXTEND
  0
POINT
  5
8A4
330
658
100
AcDbEntity
  8
DEFPOINTS
 62
     0
100
AcDbPoint
 10
-132.256873727745
 20
75.57931962070033
 30
0.0
  0
POINT
  5
8A5
330
658
100
AcDbEntity
  8
DEFPOINTS
 62
     0
100
AcDbPoint
 10
-119.4146342832669
 20
75.62020433422505
 30
0.0
  0
POINT
  5
8A6
330
658
100
AcDbEntity
  8
DEFPOINTS
 62
     0
100
AcDbPoint
 10
-119.4146342832669
 20
95.77940353203207
 30
0.0
  0
ENDBLK
  5
65A
330
658
100
AcDbEntity
  8
0
100
AcDbBlockEnd
  0
BLOCK
  5
665
330
664
100
AcDbEntity
  8
0
100
AcDbBlockBegin
  2
*D37
 70
     1
 10
0.0
 20
0.0
 30
0.0
  3
*D37
  1

  0
LINE
  5
8A7
330
664
100
AcDbEntity
  8
AM_5
100
AcDbLine
 10
-154.5651856578546
 20
91.36029509813091
 30
0.0
 11
-154.5651856578546
 21
103.4192091194233
 31
0.0
  0
LINE
  5
8A8
330
664
100
AcDbEntity
  8
AM_5
100
AcDbLine
 10
-98.06650587783057
 20
91.41920911942348
 30
0.0
 11
-98.06650587783057
 21
103.4192091194233
 31
0.0
  0
LINE
  5
8A9
330
664
100
AcDbEntity
  8
AM_5
100
AcDbLine
 10
-152.0651856578546
 20
102.4192091194233
 30
0.0
 11
-100.5665058778305
 21
102.4192091194233
 31
0.0
  0
SOLID
  5
8AA
330
664
100
AcDbEntity
  8
AM_5
100
AcDbTrace
 10
-152.0651856578546
 20
102.83587578609
 30
0.0
 11
-152.0651856578546
 21
102.0025424527567
 31
0.0
 12
-154.5651856578546
 22
102.4192091194233
 32
0.0
 13
-154.5651856578546
 23
102.4192091194233
 33
0.0
  0
SOLID
  5
8AB
330
664
100
AcDbEntity
  8
AM_5
100
AcDbTrace
 10
-100.5665058778305
 20
102.83587578609
 30
0.0
 11
-100.5665058778305
 21
102.0025424527567
 31
0.0
 12
-98.06650587783057
 22
102.4192091194233
 32
0.0
 13
-98.06650587783057
 23
102.4192091194233
 33
0.0
  0
MTEXT
  5
8AC
330
664
100
AcDbEntity
  8
AM_5
 62
     2
100
AcDbMText
 10
-126.3158457678426
 20
105.6692091194233
 30
0.0
 40
3.5
 41
0.0
 71
     5
 72
     1
  1
115
 73
     1
 44
1.0
1001
ACAD
1000
MTEXTBEGIN
1070
    73
1070
     1
1070
    44
1040
1.0
1070
    74
1070
     0
1000
MTEXTEND
  0
POINT
  5
8AD
330
664
100
AcDbEntity
  8
DEFPOINTS
 62
     0
100
AcDbPoint
 10
-154.5651856578546
 20
90.36029509813094
 30
0.0
  0
POINT
  5
8AE
330
664
100
AcDbEntity
  8
DEFPOINTS
 62
     0
100
AcDbPoint
 10
-98.06650587783057
 20
90.41920911942348
 30
0.0
  0
POINT
  5
8AF
330
664
100
AcDbEntity
  8
DEFPOINTS
 62
     0
100
AcDbPoint
 10
-98.06650587783057
 20
102.4192091194233
 30
0.0
  0
ENDBLK
  5
666
330
664
100
AcDbEntity
  8
0
100
AcDbBlockEnd
  0
BLOCK
  5
671
330
670
100
AcDbEntity
  8
0
100
AcDbBlockBegin
  2
*D38
 70
     1
 10
0.0
 20
0.0
 30
0.0
  3
*D38
  1

  0
LINE
  5
8B0
330
670
100
AcDbEntity
  8
AM_5
100
AcDbLine
 10
-85.29726899118804
 20
91.39440154344343
 30
0.0
 11
-85.29726899118804
 21
103.4192091194233
 31
0.0
  0
LINE
  5
8B1
330
670
100
AcDbEntity
  8
AM_5
100
AcDbLine
 10
-98.06412280519536
 20
91.42850925999011
 30
0.0
 11
-98.06412280519536
 21
103.4192091194233
 31
0.0
  0
LINE
  5
8B2
330
670
100
AcDbEntity
  8
AM_5
100
AcDbLine
 10
-87.79726899118804
 20
102.4192091194233
 30
0.0
 11
-95.56412280519536
 21
102.4192091194233
 31
0.0
  0
SOLID
  5
8B3
330
670
100
AcDbEntity
  8
AM_5
100
AcDbTrace
 10
-87.79726899118804
 20
102.83587578609
 30
0.0
 11
-87.79726899118804
 21
102.0025424527567
 31
0.0
 12
-85.29726899118804
 22
102.4192091194233
 32
0.0
 13
-85.29726899118804
 23
102.4192091194233
 33
0.0
  0
SOLID
  5
8B4
330
670
100
AcDbEntity
  8
AM_5
100
AcDbTrace
 10
-95.56412280519536
 20
102.83587578609
 30
0.0
 11
-95.56412280519536
 21
102.0025424527567
 31
0.0
 12
-98.06412280519536
 22
102.4192091194233
 32
0.0
 13
-98.06412280519536
 23
102.4192091194233
 33
0.0
  0
MTEXT
  5
8B5
330
670
100
AcDbEntity
  8
AM_5
 62
     2
100
AcDbMText
 10
-91.6806958981917
 20
105.6695536076123
 30
0.0
 40
3.5
 41
0.0
 71
     5
 72
     1
  1
26
 73
     1
 44
1.0
1001
ACAD
1000
MTEXTBEGIN
1070
    73
1070
     1
1070
    44
1040
1.0
1070
    74
1070
     0
1000
MTEXTEND
  0
POINT
  5
8B6
330
670
100
AcDbEntity
  8
DEFPOINTS
 62
     0
100
AcDbPoint
 10
-85.29726899118804
 20
90.39440154344344
 30
0.0
  0
POINT
  5
8B7
330
670
100
AcDbEntity
  8
DEFPOINTS
 62
     0
100
AcDbPoint
 10
-98.06412280519536
 20
90.4285092599901
 30
0.0
  0
POINT
  5
8B8
330
670
100
AcDbEntity
  8
DEFPOINTS
 62
     0
100
AcDbPoint
 10
-98.06412280519536
 20
102.4192091194233
 30
0.0
  0
ENDBLK
  5
672
330
670
100
AcDbEntity
  8
0
100
AcDbBlockEnd
  0
BLOCK
  5
67D
330
67C
100
AcDbEntity
  8
0
100
AcDbBlockBegin
  2
*D39
 70
     1
 10
0.0
 20
0.0
 30
0.0
  3
*D39
  1

  0
LINE
  5
8B9
330
67C
100
AcDbEntity
  8
AM_5
100
AcDbLine
 10
-149.9397952208259
 20
69.73592691903312
 30
0.0
 11
-149.9211116658323
 21
58.78468667079332
 31
0.0
  0
LINE
  5
8BA
330
67C
100
AcDbEntity
  8
AM_5
100
AcDbLine
 10
-101.8046781315455
 20
69.81804867756233
 30
0.0
 11
-101.7859945765519
 21
58.86680842932253
 31
0.0
  0
LINE
  5
8BB
330
67C
100
AcDbEntity
  8
AM_5
100
AcDbLine
 10
-147.4228213691672
 20
59.78895037798817
 30
0.0
 11
-104.2876970032369
 21
59.86254181146771
 31
0.0
  0
SOLID
  5
8BC
330
67C
100
AcDbEntity
  8
AM_5
100
AcDbTrace
 10
-147.4235322295879
 20
60.20561643826735
 30
0.0
 11
-147.4221105087464
 21
59.372284317709
 31
0.0
 12
-149.9228177308422
 22
59.78468521546336
 32
0.0
 13
-149.9228177308422
 23
59.78468521546336
 33
0.0
  0
SOLID
  5
8BD
330
67C
100
AcDbEntity
  8
AM_5
100
AcDbTrace
 10
-104.2884078636577
 20
60.27920787174692
 30
0.0
 11
-104.2869861428161
 21
59.44587575118855
 31
0.0
 12
-101.7877006415618
 22
59.86680697399257
 32
0.0
 13
-101.7877006415618
 23
59.86680697399257
 33
0.0
  0
MTEXT
  5
8BE
330
67C
100
AcDbEntity
  8
AM_5
 62
     2
100
AcDbMText
 10
-125.8608044852036
 20
63.0760858525932
 30
0.0
 40
3.5
 41
0.0
 71
     5
 72
     1
  1
102
 11
0.9999985446700319
 21
0.0017060650099311
 31
0.0
 73
     1
 44
1.0
1001
ACAD
1000
MTEXTBEGIN
1070
    73
1070
     1
1070
    44
1040
1.0
1070
    74
1070
     0
1000
MTEXTEND
  0
POINT
  5
8BF
330
67C
100
AcDbEntity
  8
DEFPOINTS
 62
     0
100
AcDbPoint
 10
-149.9415012858359
 20
70.73592546370315
 30
0.0
  0
POINT
  5
8C0
330
67C
100
AcDbEntity
  8
DEFPOINTS
 62
     0
100
AcDbPoint
 10
-101.8063841965554
 20
70.81804722223236
 30
0.0
  0
POINT
  5
8C1
330
67C
100
AcDbEntity
  8
DEFPOINTS
 62
     0
100
AcDbPoint
 10
-101.7877006415618
 20
59.86680697399257
 30
0.0
  0
ENDBLK
  5
67E
330
67C
100
AcDbEntity
  8
0
100
AcDbBlockEnd
  0
BLOCK
  5
689
330
688
100
AcDbEntity
  8
0
100
AcDbBlockBegin
  2
*D40
 70
     1
 10
0.0
 20
0.0
 30
0.0
  3
*D40
  1

  0
LINE
  5
8C2
330
688
100
AcDbEntity
  8
AM_5
100
AcDbLine
 10
-84.29726899118804
 20
90.39440154344344
 30
0.0
 11
-75.90701244870415
 21
90.39440154344344
 31
0.0
  0
LINE
  5
8C3
330
688
100
AcDbEntity
  8
AM_5
100
AcDbLine
 10
-85.61525174024806
 20
75.62343849557284
 30
0.0
 11
-75.90701244870415
 21
75.62343849557284
 31
0.0
  0
LINE
  5
8C4
330
688
100
AcDbEntity
  8
AM_5
100
AcDbLine
 10
-76.90701244870417
 20
87.89440154344344
 30
0.0
 11
-76.90701244870417
 21
78.12343849557284
 31
0.0
  0
SOLID
  5
8C5
330
688
100
AcDbEntity
  8
AM_5
100
AcDbTrace
 10
-77.32367911537085
 20
87.89440154344344
 30
0.0
 11
-76.4903457820375
 21
87.89440154344344
 31
0.0
 12
-76.90701244870417
 22
90.39440154344344
 32
0.0
 13
-76.90701244870417
 23
90.39440154344344
 33
0.0
  0
SOLID
  5
8C6
330
688
100
AcDbEntity
  8
AM_5
100
AcDbTrace
 10
-77.32367911537085
 20
78.12343849557284
 30
0.0
 11
-76.4903457820375
 21
78.12343849557284
 31
0.0
 12
-76.90701244870417
 22
75.62343849557284
 32
0.0
 13
-76.90701244870417
 23
75.62343849557284
 33
0.0
  0
MTEXT
  5
8C7
330
688
100
AcDbEntity
  8
AM_5
 62
     2
100
AcDbMText
 10
-80.15701244870419
 20
83.00892001950812
 30
0.0
 40
3.5
 41
0.0
 71
     5
 72
     1
  1
30
 11
0.0000000000000001
 21
1.0
 31
0.0
 73
     1
 44
1.0
1001
ACAD
1000
MTEXTBEGIN
1070
    73
1070
     1
1070
    44
1040
1.0
1070
    74
1070
     0
1000
MTEXTEND
  0
POINT
  5
8C8
330
688
100
AcDbEntity
  8
DEFPOINTS
 62
     0
100
AcDbPoint
 10
-85.29726899118804
 20
90.39440154344344
 30
0.0
  0
POINT
  5
8C9
330
688
100
AcDbEntity
  8
DEFPOINTS
 62
     0
100
AcDbPoint
 10
-86.61525174024808
 20
75.62343849557284
 30
0.0
  0
POINT
  5
8CA
330
688
100
AcDbEntity
  8
DEFPOINTS
 62
     0
100
AcDbPoint
 10
-76.90701244870417
 20
75.62343849557284
 30
0.0
  0
ENDBLK
  5
68A
330
688
100
AcDbEntity
  8
0
100
AcDbBlockEnd
  0
BLOCK
  5
695
330
694
100
AcDbEntity
  8
0
100
AcDbBlockBegin
  2
*D41
 70
     1
 10
0.0
 20
0.0
 30
0.0
  3
*D41
  1

  0
LINE
  5
8CB
330
694
100
AcDbEntity
  8
AM_5
100
AcDbLine
 10
-34.95187443281114
 20
177.6602894015162
 30
0.0
 11
-22.95187443281126
 21
177.6602894015162
 31
0.0
  0
LINE
  5
8CC
330
694
100
AcDbEntity
  8
AM_5
100
AcDbLine
 10
-35.01667667890504
 20
84.93737029344343
 30
0.0
 11
-22.95187443281128
 21
84.93737029344343
 31
0.0
  0
LINE
  5
8CD
330
694
100
AcDbEntity
  8
AM_5
100
AcDbLine
 10
-23.95187443281126
 20
175.1602894015163
 30
0.0
 11
-23.95187443281128
 21
87.43737029344343
 31
0.0
  0
SOLID
  5
8CE
330
694
100
AcDbEntity
  8
AM_5
100
AcDbTrace
 10
-24.36854109947793
 20
175.1602894015163
 30
0.0
 11
-23.53520776614459
 21
175.1602894015163
 31
0.0
 12
-23.95187443281126
 22
177.6602894015162
 32
0.0
 13
-23.95187443281126
 23
177.6602894015162
 33
0.0
  0
SOLID
  5
8CF
330
694
100
AcDbEntity
  8
AM_5
100
AcDbTrace
 10
-24.36854109947795
 20
87.43737029344343
 30
0.0
 11
-23.53520776614461
 21
87.43737029344343
 31
0.0
 12
-23.95187443281128
 22
84.93737029344343
 32
0.0
 13
-23.95187443281128
 23
84.93737029344343
 33
0.0
  0
MTEXT
  5
8D0
330
694
100
AcDbEntity
  8
AM_5
 62
     2
100
AcDbMText
 10
-27.20221892100027
 20
131.2988298474798
 30
0.0
 40
3.5
 41
0.0
 71
     5
 72
     1
  1
200
 11
0.0000000000000001
 21
1.0
 31
0.0
 73
     1
 44
1.0
1001
ACAD
1000
MTEXTBEGIN
1070
    73
1070
     1
1070
    44
1040
1.0
1070
    74
1070
     0
1000
MTEXTEND
  0
POINT
  5
8D1
330
694
100
AcDbEntity
  8
DEFPOINTS
 62
     0
100
AcDbPoint
 10
-35.95187443281114
 20
177.6602894015162
 30
0.0
  0
POINT
  5
8D2
330
694
100
AcDbEntity
  8
DEFPOINTS
 62
     0
100
AcDbPoint
 10
-36.01667667890505
 20
84.93737029344343
 30
0.0
  0
POINT
  5
8D3
330
694
100
AcDbEntity
  8
DEFPOINTS
 62
     0
100
AcDbPoint
 10
-23.95187443281128
 20
84.93737029344343
 30
0.0
  0
ENDBLK
  5
696
330
694
100
AcDbEntity
  8
0
100
AcDbBlockEnd
  0
BLOCK
  5
6A1
330
6A0
100
AcDbEntity
  8
0
100
AcDbBlockBegin
  2
*D42
 70
     1
 10
0.0
 20
0.0
 30
0.0
  3
*D42
  1

  0
LINE
  5
912
330
6A0
100
AcDbEntity
  8
0
100
AcDbLine
 10
30.24754754357398
 20
127.7337921160462
 30
0.0
 11
6.139432482995902
 21
134.5343024655752
 31
0.0
  0
SOLID
  5
913
330
6A0
100
AcDbEntity
  8
0
100
AcDbTrace
 10
30.36066805023623
 20
128.1348094000672
 30
0.0
 11
30.13442703691171
 21
127.3327748320252
 31
0.0
 12
32.6536512477
 22
127.0550690760726
 32
0.0
 13
32.6536512477
 23
127.0550690760726
 33
0.0
  0
SOLID
  5
914
330
6A0
100
AcDbEntity
  8
0
100
AcDbTrace
 10
6.252552989658173
 20
134.9353197495962
 30
0.0
 11
6.026311976333648
 21
134.1332851815542
 31
0.0
 12
3.733328778869881
 22
135.2130255055489
 32
0.0
 13
3.733328778869881
 23
135.2130255055489
 33
0.0
  0
POINT
  5
915
330
6A0
100
AcDbEntity
  8
DEFPOINTS
 62
     0
100
AcDbPoint
 10
3.733328778869881
 20
135.2130255055489
 30
0.0
  0
POINT
  5
916
330
6A0
100
AcDbEntity
  8
DEFPOINTS
 62
     0
100
AcDbPoint
 10
32.6536512477
 20
127.0550690760726
 30
0.0
  0
ENDBLK
  5
6A2
330
6A0
100
AcDbEntity
  8
0
100
AcDbBlockEnd
  0
BLOCK
  5
6A9
330
6A8
100
AcDbEntity
  8
0
100
AcDbBlockBegin
  2
*D43
 70
     1
 10
0.0
 20
0.0
 30
0.0
  3
*D43
  1

  0
LINE
  5
8D9
330
6A8
100
AcDbEntity
  8
0
100
AcDbLine
 10
-132.8468935010881
 20
174.1418657026337
 30
0.0
 11
-150.4126820618288
 21
195.5944481700995
 31
0.0
  0
LINE
  5
8DA
330
6A8
100
AcDbEntity
  8
0
100
AcDbLine
 10
-150.4126820618288
 20
195.5944481700995
 30
0.0
 11
-159.3210153951621
 21
195.5944481700995
 31
0.0
  0
SOLID
  5
8DB
330
6A8
100
AcDbEntity
  8
0
100
AcDbTrace
 10
-132.5245120379799
 20
174.405837866612
 30
0.0
 11
-133.1692749641962
 21
173.8778935386554
 31
0.0
 12
-131.2630605172184
 22
172.207576923985
 32
0.0
 13
-131.2630605172184
 23
172.207576923985
 33
0.0
  0
MTEXT
  5
8DC
330
6A8
100
AcDbEntity
  8
0
 62
     2
100
AcDbMText
 10
-155.6168487284955
 20
198.8444481700994
 30
0.0
 40
3.5
 41
0.0
 71
     5
 72
     1
  1
Φ31
 73
     1
 44
1.0
1001
ACAD
1000
MTEXTBEGIN
1070
    73
1070
     1
1070
    44
1040
1.0
1070
    74
1070
     0
1000
MTEXTEND
  0
POINT
  5
8DD
330
6A8
100
AcDbEntity
  8
DEFPOINTS
 62
     0
100
AcDbPoint
 10
-131.2630605172184
 20
172.207576923985
 30
0.0
  0
POINT
  5
8DE
330
6A8
100
AcDbEntity
  8
DEFPOINTS
 62
     0
100
AcDbPoint
 10
-126.0429128442706
 20
165.8323636473919
 30
0.0
  0
ENDBLK
  5
6AA
330
6A8
100
AcDbEntity
  8
0
100
AcDbBlockEnd
  0
BLOCK
  5
6B2
330
6B1
100
AcDbEntity
  8
0
100
AcDbBlockBegin
  2
*D44
 70
     1
 10
0.0
 20
0.0
 30
0.0
  3
*D44
  1

  0
LINE
  5
90C
330
6B1
100
AcDbEntity
  8
0
100
AcDbLine
 10
-85.85996324431128
 20
168.9057221623266
 30
0.0
 11
-66.14431155634618
 21
182.9109829099382
 31
0.0
  0
LINE
  5
90D
330
6B1
100
AcDbEntity
  8
0
100
AcDbLine
 10
-66.14431155634618
 20
182.9109829099382
 30
0.0
 11
-53.00543360359029
 21
182.9109829099382
 31
0.0
  0
SOLID
  5
90E
330
6B1
100
AcDbEntity
  8
0
100
AcDbTrace
 10
-86.101262583197
 20
169.2454069281971
 30
0.0
 11
-85.61866390542562
 21
168.5660373964563
 31
0.0
 12
-87.8980718395338
 22
167.4579261290125
 32
0.0
 13
-87.8980718395338
 23
167.4579261290125
 33
0.0
  0
MTEXT
  5
90F
330
6B1
100
AcDbEntity
  8
0
 62
     2
100
AcDbMText
 10
-58.82487257996821
 20
186.1613273981271
 30
0.0
 40
3.5
 41
0.0
 71
     5
 72
     1
  1
2-Φ11
 73
     1
 44
1.0
1001
ACAD
1000
MTEXTBEGIN
1070
    73
1070
     1
1070
    44
1040
1.0
1070
    74
1070
     0
1000
MTEXTEND
  0
POINT
  5
910
330
6B1
100
AcDbEntity
  8
DEFPOINTS
 62
     0
100
AcDbPoint
 10
-87.8980718395338
 20
167.4579261290125
 30
0.0
  0
POINT
  5
911
330
6B1
100
AcDbEntity
  8
DEFPOINTS
 62
     0
100
AcDbPoint
 10
-90.18642792673487
 20
165.8323636473929
 30
0.0
  0
ENDBLK
  5
6B3
330
6B1
100
AcDbEntity
  8
0
100
AcDbBlockEnd
  0
BLOCK
  5
6BB
330
6BA
100
AcDbEntity
  8
0
100
AcDbBlockBegin
  2
*D45
 70
     1
 10
0.0
 20
0.0
 30
0.0
  3
*D45
  1

  0
LINE
  5
8FD
330
6BA
100
AcDbEntity
  8
0
100
AcDbLine
 10
-140.6948143391278
 20
143.3228930486058
 30
0.0
 11
-168.8302815057238
 21
125.1284577198815
 31
0.0
  0
LINE
  5
8FE
330
6BA
100
AcDbEntity
  8
0
100
AcDbLine
 10
-168.8302815057238
 20
125.1284577198815
 30
0.0
 11
-180.9752562525544
 21
125.1284577198815
 31
0.0
  0
SOLID
  5
8FF
330
6BA
100
AcDbEntity
  8
0
100
AcDbTrace
 10
-140.9210737744831
 20
143.6727755703525
 30
0.0
 11
-140.4685549037725
 21
142.9730105268592
 31
0.0
 12
-138.5955192086477
 22
144.6804496607375
 32
0.0
 13
-138.5955192086477
 23
144.6804496607375
 33
0.0
  0
MTEXT
  5
900
330
6BA
100
AcDbEntity
  8
0
 62
     2
100
AcDbMText
 10
-175.6527688791391
 20
128.3784577198815
 30
0.0
 40
3.5
 41
0.0
 71
     5
 72
     1
  1
8-Φ5
 73
     1
 44
1.0
1001
ACAD
1000
MTEXTBEGIN
1070
    73
1070
     1
1070
    44
1040
1.0
1070
    74
1070
     0
1000
MTEXTEND
  0
POINT
  5
901
330
6BA
100
AcDbEntity
  8
DEFPOINTS
 62
     0
100
AcDbPoint
 10
-138.5955192086477
 20
144.6804496607375
 30
0.0
  0
POINT
  5
902
330
6BA
100
AcDbEntity
  8
DEFPOINTS
 62
     0
100
AcDbPoint
 10
-136.9988504799033
 20
145.7129715575493
 30
0.0
  0
ENDBLK
  5
6BC
330
6BA
100
AcDbEntity
  8
0
100
AcDbBlockEnd
  0
BLOCK
  5
704
330
703
100
AcDbEntity
  8
0
100
AcDbBlockBegin
  2
*D46
 70
     1
 10
0.0
 20
0.0
 30
0.0
  3
*D46
  1

  0
LINE
  5
8EB
330
703
100
AcDbEntity
  8
AM_5
100
AcDbLine
 10
-83.66326806887888
 20
193.0868240966118
 30
0.0
 11
-71.66326806887884
 21
193.0868240966118
 31
0.0
  0
LINE
  5
8EC
330
703
100
AcDbEntity
  8
AM_5
100
AcDbLine
 10
-83.66326806887888
 20
137.853520195787
 30
0.0
 11
-71.66326806887886
 21
137.853520195787
 31
0.0
  0
LINE
  5
8ED
330
703
100
AcDbEntity
  8
AM_5
100
AcDbLine
 10
-72.66326806887883
 20
190.5868240966118
 30
0.0
 11
-72.66326806887886
 21
140.353520195787
 31
0.0
  0
SOLID
  5
8EE
330
703
100
AcDbEntity
  8
AM_5
100
AcDbTrace
 10
-73.0799347355455
 20
190.5868240966118
 30
0.0
 11
-72.24660140221217
 21
190.5868240966118
 31
0.0
 12
-72.66326806887883
 22
193.0868240966118
 32
0.0
 13
-72.66326806887883
 23
193.0868240966118
 33
0.0
  0
SOLID
  5
8EF
330
703
100
AcDbEntity
  8
AM_5
100
AcDbTrace
 10
-73.07993473554553
 20
140.353520195787
 30
0.0
 11
-72.24660140221219
 21
140.353520195787
 31
0.0
 12
-72.66326806887886
 22
137.853520195787
 32
0.0
 13
-72.66326806887886
 23
137.853520195787
 33
0.0
  0
MTEXT
  5
8F0
330
703
100
AcDbEntity
  8
AM_5
 62
     2
100
AcDbMText
 10
-75.91326806887888
 20
165.4701721461994
 30
0.0
 40
3.5
 41
0.0
 71
     5
 72
     1
  1
113
 11
0.0000000000000001
 21
1.0
 31
0.0
 73
     1
 44
1.0
1001
ACAD
1000
MTEXTBEGIN
1070
    73
1070
     1
1070
    44
1040
1.0
1070
    74
1070
     0
1000
MTEXTEND
  0
POINT
  5
8F1
330
703
100
AcDbEntity
  8
DEFPOINTS
 62
     0
100
AcDbPoint
 10
-84.66326806887886
 20
193.0868240966118
 30
0.0
  0
POINT
  5
8F2
330
703
100
AcDbEntity
  8
DEFPOINTS
 62
     0
100
AcDbPoint
 10
-84.66326806887886
 20
137.853520195787
 30
0.0
  0
POINT
  5
8F3
330
703
100
AcDbEntity
  8
DEFPOINTS
 62
     0
100
AcDbPoint
 10
-72.66326806887886
 20
137.853520195787
 30
0.0
  0
ENDBLK
  5
705
330
703
100
AcDbEntity
  8
0
100
AcDbBlockEnd
  0
BLOCK
  5
74A
330
749
100
AcDbEntity
  8
0
100
AcDbBlockBegin
  2
*D47
 70
     1
 10
0.0
 20
0.0
 30
0.0
  3
*D47
  1

  0
LINE
  5
8F4
330
749
100
AcDbEntity
  8
AM_5
100
AcDbLine
 10
-144.6047772648425
 20
185.7584091118028
 30
0.0
 11
-144.6047772648425
 21
203.3602961986102
 31
0.0
  0
LINE
  5
8F5
330
749
100
AcDbEntity
  8
AM_5
100
AcDbLine
 10
-108.0240988251723
 20
184.0851090087211
 30
0.0
 11
-108.0240988251723
 21
203.3602961986102
 31
0.0
  0
LINE
  5
8F6
330
749
100
AcDbEntity
  8
AM_5
100
AcDbLine
 10
-142.1047772648424
 20
202.3602961986103
 30
0.0
 11
-110.5240988251723
 21
202.3602961986103
 31
0.0
  0
SOLID
  5
8F7
330
749
100
AcDbEntity
  8
AM_5
100
AcDbTrace
 10
-142.1047772648424
 20
202.7769628652769
 30
0.0
 11
-142.1047772648424
 21
201.9436295319436
 31
0.0
 12
-144.6047772648425
 22
202.3602961986103
 32
0.0
 13
-144.6047772648425
 23
202.3602961986103
 33
0.0
  0
SOLID
  5
8F8
330
749
100
AcDbEntity
  8
AM_5
100
AcDbTrace
 10
-110.5240988251723
 20
202.7769628652769
 30
0.0
 11
-110.5240988251723
 21
201.9436295319436
 31
0.0
 12
-108.0240988251723
 22
202.3602961986103
 32
0.0
 13
-108.0240988251723
 23
202.3602961986103
 33
0.0
  0
MTEXT
  5
8F9
330
749
100
AcDbEntity
  8
AM_5
 62
     2
100
AcDbMText
 10
-126.3144380450074
 20
205.6106406867992
 30
0.0
 40
3.5
 41
0.0
 71
     5
 72
     1
  1
72
 73
     1
 44
1.0
1001
ACAD
1000
MTEXTBEGIN
1070
    73
1070
     1
1070
    44
1040
1.0
1070
    74
1070
     0
1000
MTEXTEND
  0
POINT
  5
8FA
330
749
100
AcDbEntity
  8
DEFPOINTS
 62
     0
100
AcDbPoint
 10
-144.6047772648425
 20
184.7584091118028
 30
0.0
  0
POINT
  5
8FB
330
749
100
AcDbEntity
  8
DEFPOINTS
 62
     0
100
AcDbPoint
 10
-108.0240988251723
 20
183.0851090087211
 30
0.0
  0
POINT
  5
8FC
330
749
100
AcDbEntity
  8
DEFPOINTS
 62
     0
100
AcDbPoint
 10
-108.0240988251723
 20
202.3602961986103
 30
0.0
  0
ENDBLK
  5
74B
330
749
100
AcDbEntity
  8
0
100
AcDbBlockEnd
  0
BLOCK
  5
919
330
918
100
AcDbEntity
  8
レイヤー_1
 62
     7
100
AcDbBlockBegin
  2
AI9-BLK1
 70
     0
 71
     1
 10
0.0
 20
0.0
 30
0.0
  3
AI9-BLK1
  1

  0
MTEXT
  5
91A
330
918
100
AcDbEntity
  8
レイヤー_1
 62
     7
100
AcDbMText
 10
-2.943058946397568
 20
1.433692891761723
 30
0.0
 40
2.624834656084654
 41
0.0
 71
     1
 72
     2
  1
\fArial|b0|i0;240
  7
STD
 73
     1
 44
1.0
1001
ACAD
1000
MTEXTBEGIN
1070
    73
1070
     1
1070
    44
1040
1.0
1070
    74
1070
     0
1000
MTEXTEND
  0
ENDBLK
  5
91B
330
918
100
AcDbEntity
  8
レイヤー_1
100
AcDbBlockEnd
  0
BLOCK
  5
91D
330
91C
100
AcDbEntity
  8
レイヤー_1
 62
     7
100
AcDbBlockBegin
  2
AI9-BLK2
 70
     0
 71
     1
 10
0.0
 20
0.0
 30
0.0
  3
AI9-BLK2
  1

  0
MTEXT
  5
91E
330
91C
100
AcDbEntity
  8
レイヤー_1
 62
     7
100
AcDbMText
 10
1.433692891761744
 20
1.961981879340275
 30
0.0
 40
2.624834656084654
 41
0.0
 71
     1
 72
     2
  1
\fArial|b0|i0;98
  7
STD
 11
0.0
 21
-1.0
 31
0.0
 73
     1
 44
1.0
1001
ACAD
1000
MTEXTBEGIN
1070
    73
1070
     1
1070
    44
1040
1.0
1070
    74
1070
     0
1000
MTEXTEND
  0
ENDBLK
  5
91F
330
91C
100
AcDbEntity
  8
レイヤー_1
100
AcDbBlockEnd
  0
BLOCK
  5
921
330
920
100
AcDbEntity
  8
レイヤー_1
 62
     7
100
AcDbBlockBegin
  2
AI9-BLK3
 70
     0
 71
     1
 10
0.0
 20
0.0
 30
0.0
  3
AI9-BLK3
  1

  0
MTEXT
  5
922
330
920
100
AcDbEntity
  8
レイヤー_1
 62
     7
100
AcDbMText
 10
1.433692891761744
 20
2.942972819010416
 30
0.0
 40
2.624834656084654
 41
0.0
 71
     1
 72
     2
  1
\fArial|b0|i0;132
  7
STD
 11
0.0
 21
-1.0
 31
0.0
 73
     1
 44
1.0
1001
ACAD
1000
MTEXTBEGIN
1070
    73
1070
     1
1070
    44
1040
1.0
1070
    74
1070
     0
1000
MTEXTEND
  0
ENDBLK
  5
923
330
920
100
AcDbEntity
  8
レイヤー_1
100
AcDbBlockEnd
  0
BLOCK
  5
925
330
924
100
AcDbEntity
  8
レイヤー_1
 62
     7
100
AcDbBlockBegin
  2
AI9-BLK4
 70
     0
 71
     1
 10
0.0
 20
0.0
 30
0.0
  3
AI9-BLK4
  1

  0
INSERT
  5
926
330
924
100
AcDbEntity
  8
レイヤー_1
 62
     7
100
AcDbBlockReference
  2
AI9-BLK5
 10
0.0
 20
0.0
 30
0.0
  0
ENDBLK
  5
927
330
924
100
AcDbEntity
  8
レイヤー_1
100
AcDbBlockEnd
  0
BLOCK
  5
929
330
928
100
AcDbEntity
  8
レイヤー_1
 62
     7
100
AcDbBlockBegin
  2
AI9-BLK5
 70
     0
 71
     1
 10
0.0
 20
0.0
 30
0.0
  3
AI9-BLK5
  1

  0
LINE
  5
92A
330
928
100
AcDbEntity
  8
レイヤー_1
 62
     7
100
AcDbLine
 10
0.0
 20
-14.2875
 30
0.0
 11
0.0
 21
14.2875
 31
0.0
  0
HATCH
  5
92B
330
928
100
AcDbEntity
  8
レイヤー_1
 62
     7
100
AcDbHatch
 10
0.0
 20
0.0
 30
0.0
210
0.0
220
0.0
230
1.0
  2
SOLID
 70
     1
 71
     0
 91
        1
 92
        1
 93
        1
 72
     4
 94
        3
 73
     0
 74
     0
 95
       20
 96
       16
 40
0.0
 40
0.0
 40
0.0
 40
0.0
 40
1.0
 40
1.0
 40
1.0
 40
2.0
 40
2.0
 40
2.0
 40
3.0
 40
3.0
 40
3.0
 40
4.0
 40
4.0
 40
4.0
 40
5.0
 40
5.0
 40
5.0
 40
5.0
 10
-0.1808675130208333
 20
14.70435655381944
 10
-0.2687174479166666
 20
14.41290147569444
 10
-0.3500217013888889
 20
14.22273220486111
 10
-0.4437282986111112
 20
13.98915473090277
 10
-0.4437282986111112
 20
13.98915473090277
 10
0.4457953559027778
 20
13.98915473090277
 10
0.4457953559027778
 20
13.98915473090277
 10
0.4061767578125
 20
14.07252604166666
 10
0.2707845052083333
 20
14.41290147569444
 10
0.1825900607638889
 20
14.70435655381944
 10
0.0885389539930556
 20
15.01648220486111
 10
0.0241156684027778
 20
15.29966905381944
 10
0.0010335286458333
 20
15.48294813368055
 10
-0.0220486111111111
 20
15.29966905381944
 10
-0.0864718967013889
 20
15.01648220486111
 10
-0.1808675130208333
 20
14.70435655381944
 97
        0
 75
     0
 76
     1
 98
        1
 10
0.0
 20
0.0
  0
HATCH
  5
92C
330
928
100
AcDbEntity
  8
レイヤー_1
 62
     7
100
AcDbHatch
 10
0.0
 20
0.0
 30
0.0
210
0.0
220
0.0
230
1.0
  2
SOLID
 70
     1
 71
     0
 91
        1
 92
        1
 93
        1
 72
     4
 94
        3
 73
     0
 74
     0
 95
       20
 96
       16
 40
0.0
 40
0.0
 40
0.0
 40
0.0
 40
1.0
 40
1.0
 40
1.0
 40
2.0
 40
2.0
 40
2.0
 40
3.0
 40
3.0
 40
3.0
 40
4.0
 40
4.0
 40
4.0
 40
5.0
 40
5.0
 40
5.0
 40
5.0
 10
0.1808675130208333
 20
-14.70366753472222
 10
0.2687174479166666
 20
-14.41221245659722
 10
0.3500217013888889
 20
-14.22273220486111
 10
0.4437282986111112
 20
-13.98915473090277
 10
0.4437282986111112
 20
-13.98915473090277
 10
-0.4457953559027778
 20
-13.98915473090277
 10
-0.4457953559027778
 20
-13.98915473090277
 10
-0.4061767578125
 20
-14.07252604166666
 10
-0.2707845052083333
 20
-14.41221245659722
 10
-0.1825900607638889
 20
-14.70366753472222
 10
-0.0885389539930556
 20
-15.01579318576388
 10
-0.0241156684027778
 20
-15.29898003472222
 10
-0.0010335286458333
 20
-15.48294813368055
 10
0.0220486111111111
 20
-15.29898003472222
 10
0.0864718967013889
 20
-15.01579318576388
 10
0.1808675130208333
 20
-14.70366753472222
 97
        0
 75
     0
 76
     1
 98
        1
 10
0.0
 20
0.0
  0
ENDBLK
  5
92D
330
928
100
AcDbEntity
  8
レイヤー_1
100
AcDbBlockEnd
  0
BLOCK
  5
92F
330
92E
100
AcDbEntity
  8
レイヤー_1
 62
     7
100
AcDbBlockBegin
  2
AI9-BLK6
 70
     0
 71
     1
 10
0.0
 20
0.0
 30
0.0
  3
AI9-BLK6
  1

  0
INSERT
  5
930
330
92E
100
AcDbEntity
  8
レイヤー_1
 62
     7
100
AcDbBlockReference
  2
AI9-BLK7
 10
0.0
 20
0.0
 30
0.0
  0
ENDBLK
  5
931
330
92E
100
AcDbEntity
  8
レイヤー_1
100
AcDbBlockEnd
  0
BLOCK
  5
933
330
932
100
AcDbEntity
  8
レイヤー_1
 62
     7
100
AcDbBlockBegin
  2
AI9-BLK7
 70
     0
 71
     1
 10
0.0
 20
0.0
 30
0.0
  3
AI9-BLK7
  1

  0
LINE
  5
934
330
932
100
AcDbEntity
  8
レイヤー_1
 62
     7
100
AcDbLine
 10
0.0
 20
-18.87378336588541
 30
0.0
 11
0.0
 21
18.87361111111111
 31
0.0
  0
HATCH
  5
935
330
932
100
AcDbEntity
  8
レイヤー_1
 62
     7
100
AcDbHatch
 10
0.0
 20
0.0
 30
0.0
210
0.0
220
0.0
230
1.0
  2
SOLID
 70
     1
 71
     0
 91
        1
 92
        1
 93
        1
 72
     4
 94
        3
 73
     0
 74
     0
 95
       20
 96
       16
 40
0.0
 40
0.0
 40
0.0
 40
0.0
 40
1.0
 40
1.0
 40
1.0
 40
2.0
 40
2.0
 40
2.0
 40
3.0
 40
3.0
 40
3.0
 40
4.0
 40
4.0
 40
4.0
 40
5.0
 40
5.0
 40
5.0
 40
5.0
 10
-0.1808675130208333
 20
19.29012315538194
 10
-0.2687174479166666
 20
18.99866807725694
 10
-0.3500217013888889
 20
18.80901557074652
 10
-0.4437282986111112
 20
18.57509358723958
 10
-0.4437282986111112
 20
18.57509358723958
 10
0.4457953559027778
 20
18.57509358723958
 10
0.4457953559027778
 20
18.57509358723958
 10
0.4061767578125
 20
18.65880940755207
 10
0.2707845052083333
 20
18.99866807725694
 10
0.1825900607638889
 20
19.29012315538194
 10
0.0885389539930556
 20
19.60224880642361
 10
0.0241156684027778
 20
19.88543565538194
 10
0.0010335286458333
 20
20.06888699001736
 10
-0.0220486111111111
 20
19.88543565538194
 10
-0.0864718967013889
 20
19.60224880642361
 10
-0.1808675130208333
 20
19.29012315538194
 97
        0
 75
     0
 76
     1
 98
        1
 10
0.0
 20
0.0
  0
HATCH
  5
936
330
932
100
AcDbEntity
  8
レイヤー_1
 62
     7
100
AcDbHatch
 10
0.0
 20
0.0
 30
0.0
210
0.0
220
0.0
230
1.0
  2
SOLID
 70
     1
 71
     0
 91
        1
 92
        1
 93
        1
 72
     4
 94
        3
 73
     0
 74
     0
 95
       20
 96
       16
 40
0.0
 40
0.0
 40
0.0
 40
0.0
 40
1.0
 40
1.0
 40
1.0
 40
2.0
 40
2.0
 40
2.0
 40
3.0
 40
3.0
 40
3.0
 40
4.0
 40
4.0
 40
4.0
 40
5.0
 40
5.0
 40
5.0
 40
5.0
 10
0.1808675130208333
 20
-19.28995090060763
 10
0.2687174479166666
 20
-18.99849582248264
 10
0.3500217013888889
 20
-18.80901557074652
 10
0.4437282986111112
 20
-18.57509358723958
 10
0.4437282986111112
 20
-18.57509358723958
 10
-0.4457953559027778
 20
-18.57509358723958
 10
-0.4457953559027778
 20
-18.57509358723958
 10
-0.4061767578125
 20
-18.65880940755207
 10
-0.2707845052083333
 20
-18.99849582248264
 10
-0.1825900607638889
 20
-19.28995090060763
 10
-0.0885389539930556
 20
-19.6020765516493
 10
-0.0241156684027778
 20
-19.88526340060763
 10
-0.0010335286458333
 20
-20.06888699001736
 10
0.0220486111111111
 20
-19.88526340060763
 10
0.0864718967013889
 20
-19.6020765516493
 10
0.1808675130208333
 20
-19.28995090060763
 97
        0
 75
     0
 76
     1
 98
        1
 10
0.0
 20
0.0
  0
ENDBLK
  5
937
330
932
100
AcDbEntity
  8
レイヤー_1
100
AcDbBlockEnd
  0
BLOCK
  5
939
330
938
100
AcDbEntity
  8
レイヤー_1
 62
     7
100
AcDbBlockBegin
  2
AI9-BLK8
 70
     0
 71
     1
 10
0.0
 20
0.0
 30
0.0
  3
AI9-BLK8
  1

  0
INSERT
  5
93A
330
938
100
AcDbEntity
  8
レイヤー_1
 62
     7
100
AcDbBlockReference
  2
AI9-BLK9
 10
0.0
 20
0.0
 30
0.0
  0
ENDBLK
  5
93B
330
938
100
AcDbEntity
  8
レイヤー_1
100
AcDbBlockEnd
  0
BLOCK
  5
93D
330
93C
100
AcDbEntity
  8
レイヤー_1
 62
     7
100
AcDbBlockBegin
  2
AI9-BLK9
 70
     0
 71
     1
 10
0.0
 20
0.0
 30
0.0
  3
AI9-BLK9
  1

  0
LINE
  5
93E
330
93C
100
AcDbEntity
  8
レイヤー_1
 62
     7
100
AcDbLine
 10
-35.05729166666667
 20
0.0
 30
0.0
 11
35.05729166666667
 21
0.0
 31
0.0
  0
HATCH
  5
93F
330
93C
100
AcDbEntity
  8
レイヤー_1
 62
     7
100
AcDbHatch
 10
0.0
 20
0.0
 30
0.0
210
0.0
220
0.0
230
1.0
  2
SOLID
 70
     1
 71
     0
 91
        1
 92
        1
 93
        1
 72
     4
 94
        3
 73
     0
 74
     0
 95
       20
 96
       16
 40
0.0
 40
0.0
 40
0.0
 40
0.0
 40
1.0
 40
1.0
 40
1.0
 40
2.0
 40
2.0
 40
2.0
 40
3.0
 40
3.0
 40
3.0
 40
4.0
 40
4.0
 40
4.0
 40
5.0
 40
5.0
 40
5.0
 40
5.0
 10
35.4738037109375
 20
0.1812120225694444
 10
35.1823486328125
 20
0.2687174479166666
 10
34.99252387152778
 20
0.3500217013888889
 10
34.75894639756944
 20
0.4437282986111112
 10
34.75894639756944
 20
0.4437282986111112
 10
34.75894639756944
 20
-0.4457953559027778
 10
34.75894639756944
 20
-0.4457953559027778
 10
34.84231770833333
 20
-0.405832248263889
 10
35.1823486328125
 20
-0.2707845052083333
 10
35.4738037109375
 20
-0.1825900607638889
 10
35.78592936197916
 20
-0.0881944444444445
 10
36.06911621093749
 20
-0.0241156684027778
 10
36.25273980034722
 20
-0.0006890190972222
 10
36.06911621093749
 20
0.0220486111111111
 10
35.78592936197916
 20
0.08681640625
 10
35.4738037109375
 20
0.1812120225694444
 97
        0
 75
     0
 76
     1
 98
        1
 10
0.0
 20
0.0
  0
HATCH
  5
940
330
93C
100
AcDbEntity
  8
レイヤー_1
 62
     7
100
AcDbHatch
 10
0.0
 20
0.0
 30
0.0
210
0.0
220
0.0
230
1.0
  2
SOLID
 70
     1
 71
     0
 91
        1
 92
        1
 93
        1
 72
     4
 94
        3
 73
     0
 74
     0
 95
       20
 96
       16
 40
0.0
 40
0.0
 40
0.0
 40
0.0
 40
1.0
 40
1.0
 40
1.0
 40
2.0
 40
2.0
 40
2.0
 40
3.0
 40
3.0
 40
3.0
 40
4.0
 40
4.0
 40
4.0
 40
5.0
 40
5.0
 40
5.0
 40
5.0
 10
-35.4738037109375
 20
-0.1805230034722222
 10
-35.1823486328125
 20
-0.2687174479166666
 10
-34.99252387152778
 20
-0.3500217013888889
 10
-34.75894639756944
 20
-0.4437282986111112
 10
-34.75894639756944
 20
-0.4437282986111112
 10
-34.75894639756944
 20
0.4457953559027778
 10
-34.75894639756944
 20
0.4457953559027778
 10
-34.84231770833333
 20
0.4065212673611111
 10
-35.1823486328125
 20
0.2707845052083333
 10
-35.4738037109375
 20
0.1825900607638889
 10
-35.78592936197916
 20
0.0888834635416667
 10
-36.06911621093749
 20
0.0241156684027778
 10
-36.25273980034722
 20
0.0013780381944444
 10
-36.06911621093749
 20
-0.0220486111111111
 10
-35.78592936197916
 20
-0.0861273871527778
 10
-35.4738037109375
 20
-0.1805230034722222
 97
        0
 75
     0
 76
     1
 98
        1
 10
0.0
 20
0.0
  0
ENDBLK
  5
941
330
93C
100
AcDbEntity
  8
レイヤー_1
100
AcDbBlockEnd
  0
BLOCK
  5
1264
330
1263
100
AcDbEntity
  8
0
100
AcDbBlockBegin
  2
*D57
 70
     1
 10
0.0
 20
0.0
 30
0.0
  3
*D57
  1

  0
LINE
  5
129E
330
1263
100
AcDbEntity
  8
AM_5
100
AcDbLine
 10
169.3089289360946
 20
92.4322617108003
 30
0.0
 11
169.3089289360946
 21
78.52864511514694
 31
0.0
  0
LINE
  5
129F
330
1263
100
AcDbEntity
  8
AM_5
100
AcDbLine
 10
256.5800877902613
 20
92.4322617108003
 30
0.0
 11
256.5800877902613
 21
78.52864511514694
 31
0.0
  0
LINE
  5
12A0
330
1263
100
AcDbEntity
  8
AM_5
100
AcDbLine
 10
171.8089289360946
 20
79.5286451151469
 30
0.0
 11
254.0800877902613
 21
79.5286451151469
 31
0.0
  0
SOLID
  5
12A1
330
1263
100
AcDbEntity
  8
AM_5
100
AcDbTrace
 10
171.8089289360946
 20
79.94531178181356
 30
0.0
 11
171.8089289360946
 21
79.11197844848023
 31
0.0
 12
169.3089289360946
 22
79.5286451151469
 32
0.0
 13
169.3089289360946
 23
79.5286451151469
 33
0.0
  0
SOLID
  5
12A2
330
1263
100
AcDbEntity
  8
AM_5
100
AcDbTrace
 10
254.0800877902613
 20
79.94531178181356
 30
0.0
 11
254.0800877902613
 21
79.11197844848023
 31
0.0
 12
256.5800877902613
 22
79.5286451151469
 32
0.0
 13
256.5800877902613
 23
79.5286451151469
 33
0.0
  0
MTEXT
  5
12A3
330
1263
100
AcDbEntity
  8
AM_5
 62
     2
100
AcDbMText
 10
212.9445083631779
 20
82.77898960333589
 30
0.0
 40
3.5
 41
0.0
 71
     5
 72
     1
  1
240
 73
     1
 44
1.0
1001
ACAD
1000
MTEXTBEGIN
1070
    73
1070
     1
1070
    44
1040
1.0
1070
    74
1070
     0
1000
MTEXTEND
  0
POINT
  5
12A4
330
1263
100
AcDbEntity
  8
DEFPOINTS
 62
     0
100
AcDbPoint
 10
169.3089289360946
 20
93.43226171080031
 30
0.0
  0
POINT
  5
12A5
330
1263
100
AcDbEntity
  8
DEFPOINTS
 62
     0
100
AcDbPoint
 10
256.5800877902613
 20
93.43226171080031
 30
0.0
  0
POINT
  5
12A6
330
1263
100
AcDbEntity
  8
DEFPOINTS
 62
     0
100
AcDbPoint
 10
256.5800877902613
 20
79.5286451151469
 30
0.0
  0
ENDBLK
  5
1265
330
1263
100
AcDbEntity
  8
0
100
AcDbBlockEnd
  0
BLOCK
  5
12A9
330
12A8
100
AcDbEntity
  8
0
100
AcDbBlockBegin
  2
*D58
 70
     1
 10
0.0
 20
0.0
 30
0.0
  3
*D58
  1

  0
LINE
  5
1317
330
12A8
100
AcDbEntity
  8
AM_5
100
AcDbLine
 10
256.5316763319279
 20
129.620647127467
 30
0.0
 11
268.732443015827
 21
129.620647127467
 31
0.0
  0
LINE
  5
1318
330
12A8
100
AcDbEntity
  8
AM_5
100
AcDbLine
 10
256.5316763319279
 20
92.252385408717
 30
0.0
 11
268.7324430158269
 21
92.252385408717
 31
0.0
  0
LINE
  5
1319
330
12A8
100
AcDbEntity
  8
AM_5
100
AcDbLine
 10
267.7324430158269
 20
127.120647127467
 30
0.0
 11
267.7324430158269
 21
94.752385408717
 31
0.0
  0
SOLID
  5
131A
330
12A8
100
AcDbEntity
  8
AM_5
100
AcDbTrace
 10
267.3157763491602
 20
127.120647127467
 30
0.0
 11
268.1491096824936
 21
127.120647127467
 31
0.0
 12
267.7324430158269
 22
129.620647127467
 32
0.0
 13
267.7324430158269
 23
129.620647127467
 33
0.0
  0
SOLID
  5
131B
330
12A8
100
AcDbEntity
  8
AM_5
100
AcDbTrace
 10
267.3157763491602
 20
94.752385408717
 30
0.0
 11
268.1491096824936
 21
94.752385408717
 31
0.0
 12
267.7324430158269
 22
92.252385408717
 32
0.0
 13
267.7324430158269
 23
92.252385408717
 33
0.0
  0
MTEXT
  5
131C
330
12A8
100
AcDbEntity
  8
AM_5
 62
     2
100
AcDbMText
 10
264.4824430158269
 20
110.936516268092
 30
0.0
 40
3.5
 41
0.0
 71
     5
 72
     1
  1
98
 11
0.0000000000000001
 21
1.0
 31
0.0
 73
     1
 44
1.0
1001
ACAD
1000
MTEXTBEGIN
1070
    73
1070
     1
1070
    44
1040
1.0
1070
    74
1070
     0
1000
MTEXTEND
  0
POINT
  5
131D
330
12A8
100
AcDbEntity
  8
DEFPOINTS
 62
     0
100
AcDbPoint
 10
255.5316763319279
 20
129.620647127467
 30
0.0
  0
POINT
  5
131E
330
12A8
100
AcDbEntity
  8
DEFPOINTS
 62
     0
100
AcDbPoint
 10
255.5316763319279
 20
92.252385408717
 30
0.0
  0
POINT
  5
131F
330
12A8
100
AcDbEntity
  8
DEFPOINTS
 62
     0
100
AcDbPoint
 10
267.7324430158269
 20
92.252385408717
 30
0.0
  0
ENDBLK
  5
12AA
330
12A8
100
AcDbEntity
  8
0
100
AcDbBlockEnd
  0
BLOCK
  5
12DC
330
12DB
100
AcDbEntity
  8
0
100
AcDbBlockBegin
  2
*D59
 70
     1
 10
0.0
 20
0.0
 30
0.0
  3
*D59
  1

  0
LINE
  5
1320
330
12DB
100
AcDbEntity
  8
AM_5
100
AcDbLine
 10
256.5316763319279
 20
202.3655608644462
 30
0.0
 11
268.7365192502398
 21
202.3655608644462
 31
0.0
  0
LINE
  5
1321
330
12DB
100
AcDbEntity
  8
AM_5
100
AcDbLine
 10
256.5316763319279
 20
153.8120387290295
 30
0.0
 11
268.7365192502398
 21
153.8120387290295
 31
0.0
  0
LINE
  5
1322
330
12DB
100
AcDbEntity
  8
AM_5
100
AcDbLine
 10
267.7365192502398
 20
199.8655608644462
 30
0.0
 11
267.7365192502398
 21
156.3120387290295
 31
0.0
  0
SOLID
  5
1323
330
12DB
100
AcDbEntity
  8
AM_5
100
AcDbTrace
 10
267.3198525835731
 20
199.8655608644462
 30
0.0
 11
268.1531859169065
 21
199.8655608644462
 31
0.0
 12
267.7365192502398
 22
202.3655608644462
 32
0.0
 13
267.7365192502398
 23
202.3655608644462
 33
0.0
  0
SOLID
  5
1324
330
12DB
100
AcDbEntity
  8
AM_5
100
AcDbTrace
 10
267.3198525835731
 20
156.3120387290295
 30
0.0
 11
268.1531859169065
 21
156.3120387290295
 31
0.0
 12
267.7365192502398
 22
153.8120387290295
 32
0.0
 13
267.7365192502398
 23
153.8120387290295
 33
0.0
  0
MTEXT
  5
1325
330
12DB
100
AcDbEntity
  8
AM_5
 62
     2
100
AcDbMText
 10
264.4861747620507
 20
178.0887997967379
 30
0.0
 40
3.5
 41
0.0
 71
     5
 72
     1
  1
132
 11
0.0000000000000001
 21
1.0
 31
0.0
 73
     1
 44
1.0
1001
ACAD
1000
MTEXTBEGIN
1070
    73
1070
     1
1070
    44
1040
1.0
1070
    74
1070
     0
1000
MTEXTEND
  0
POINT
  5
1326
330
12DB
100
AcDbEntity
  8
DEFPOINTS
 62
     0
100
AcDbPoint
 10
255.5316763319279
 20
202.3655608644462
 30
0.0
  0
POINT
  5
1327
330
12DB
100
AcDbEntity
  8
DEFPOINTS
 62
     0
100
AcDbPoint
 10
255.5316763319279
 20
153.8120387290295
 30
0.0
  0
POINT
  5
1328
330
12DB
100
AcDbEntity
  8
DEFPOINTS
 62
     0
100
AcDbPoint
 10
267.7365192502398
 20
153.8120387290295
 30
0.0
  0
ENDBLK
  5
12DD
330
12DB
100
AcDbEntity
  8
0
100
AcDbBlockEnd
  0
ENDSEC
  0
SECTION
  2
ENTITIES
  0
LINE
  5
401
330
75
100
AcDbEntity
  8
枠
  6
Continuous
100
AcDbLine
 10
170.1418625499297
 20
50.40314379430546
 30
0.0
 11
170.1418625499297
 21
40.08263977958663
 31
0.0
  0
LINE
  5
402
330
75
100
AcDbEntity
  8
枠
  6
Continuous
100
AcDbLine
 10
230.3322557502781
 20
50.40314379430546
 30
0.0
 11
230.3322557502781
 21
40.08263977958663
 31
0.0
  0
LINE
  5
403
330
75
100
AcDbEntity
  8
枠
  6
Continuous
100
AcDbLine
 10
236.9151953430157
 20
50.40314379430546
 30
0.0
 11
236.9151953430157
 21
40.08263977958663
 31
0.0
  0
LINE
  5
404
330
75
100
AcDbEntity
  8
枠
  6
Continuous
100
AcDbLine
 10
327.6971493825322
 20
50.40314379430546
 30
0.0
 11
327.6971493825322
 21
40.08263977958663
 31
0.0
  0
LINE
  5
405
330
75
100
AcDbEntity
  8
枠
  6
Continuous
100
AcDbLine
 10
334.8098846629402
 20
50.40314379430546
 30
0.0
 11
334.8098846629402
 21
40.08263977958663
 31
0.0
  0
LINE
  5
406
330
75
100
AcDbEntity
  8
枠
  6
Continuous
100
AcDbLine
 10
351.6258066275025
 20
50.56688784014522
 30
0.0
 11
68.01966605892221
 21
50.5711879484507
 31
0.0
  0
TEXT
  5
407
330
75
100
AcDbEntity
  8
枠
  6
Continuous
100
AcDbText
 10
331.4391238568565
 20
56.94816767600042
 30
0.0
 40
3.0
  1
(mm)
100
AcDbText
1001
ACAD
1000
MTEXTBEGIN
1070
    73
1070
     1
1070
    44
1040
1.0
1070
    74
1070
     0
1000
MTEXTEND
  0
LINE
  5
408
330
75
100
AcDbEntity
  8
枠
  6
Continuous
100
AcDbLine
 10
177.2769699188726
 20
50.40314370434188
 30
0.0
 11
177.2769699188725
 21
40.08263968962308
 31
0.0
  0
TEXT
  5
409
330
75
100
AcDbEntity
  8
外形線
  6
Continuous
100
AcDbText
 10
183.7938284868983
 20
43.17842339750131
 30
0.0
 40
3.0
  1
SE-WD700
100
AcDbText
1001
ACAD
1000
MTEXTBEGIN
1070
    73
1070
     1
1070
    44
1040
1.0
1070
    74
1070
     0
1000
MTEXTEND
  0
TEXT
  5
40A
330
75
100
AcDbEntity
  8
レイヤー_1_0
  6
Continuous
 62
     7
100
AcDbText
 10
76.09638290166678
 20
43.59924004556392
 30
0.0
 40
4.390912999999993
  1
株式会社 ダイワインダストリ
  7
KANJISTD
100
AcDbText
1001
ACAD
1000
MTEXTBEGIN
1070
    73
1070
     1
1070
    44
1040
1.0
1070
    74
1070
     0
1000
MTEXTEND
  0
TEXT
  5
40B
330
75
100
AcDbEntity
  8
枠
100
AcDbText
 10
172.0816679094851
 20
46.35572719369168
 30
0.0
 40
2.5
  1
品
100
AcDbText
  0
TEXT
  5
40C
330
75
100
AcDbEntity
  8
枠
100
AcDbText
 10
172.308940636758
 20
41.80553779975229
 30
0.0
 40
2.5
  1
番
100
AcDbText
  0
TEXT
  5
40D
330
75
100
AcDbEntity
  8
外形線
100
AcDbText
 10
242.767702592159
 20
43.4814040671145
 30
0.0
 40
3.5
  1
ワイドダイナミックカラーカメラ
100
AcDbText
1001
ACAD
1000
ACAD_MTEXT_DEFINED_HEIGHT_BEGIN
1070
    46
1040
10.36110917584225
1000
ACAD_MTEXT_DEFINED_HEIGHT_END
  0
TEXT
  5
40E
330
75
100
AcDbEntity
  8
レイヤー_1_0
 62
     7
100
AcDbText
 10
77.74278309512279
 20
215.5765582796509
 30
0.0
 40
2.744320999999998
  1
■ 外形図
  7
KANJISTD
100
AcDbText
  0
TEXT
  5
40F
330
75
100
AcDbEntity
  8
枠
100
AcDbText
 10
329.3494002905088
 20
46.22788637456436
 30
0.0
 40
2.5
  1
改
100
AcDbText
  0
TEXT
  5
410
330
75
100
AcDbEntity
  8
枠
100
AcDbText
 10
329.3494002905088
 20
41.69190152607952
 30
0.0
 40
2.5
  1
訂
100
AcDbText
  0
TEXT
  5
411
330
75
100
AcDbEntity
  8
枠
100
AcDbText
 10
231.7198933336284
 20
46.35572728365528
 30
0.0
 40
2.5
  1
品
100
AcDbText
  0
TEXT
  5
412
330
75
100
AcDbEntity
  8
枠
100
AcDbText
 10
231.8335296972647
 20
41.77712879880679
 30
0.0
 40
2.5
  1
名
100
AcDbText
  0
LINE
  5
413
330
75
100
AcDbEntity
  8
枠
  6
Continuous
100
AcDbLine
 10
68.01966605892221
 20
229.7668618605257
 30
0.0
 11
351.6258066275025
 21
229.7668618605257
 31
0.0
  0
LINE
  5
414
330
75
100
AcDbEntity
  8
枠
  6
Continuous
100
AcDbLine
 10
351.6258066275025
 20
229.7668618605257
 30
0.0
 11
351.6258066275025
 21
40.08263977958663
 31
0.0
  0
LINE
  5
415
330
75
100
AcDbEntity
  8
枠
  6
Continuous
100
AcDbLine
 10
351.6258066275025
 20
40.08263977958663
 30
0.0
 11
68.01966605892221
 21
40.08263977958663
 31
0.0
  0
LINE
  5
416
330
75
100
AcDbEntity
  8
枠
  6
Continuous
100
AcDbLine
 10
68.01966605892221
 20
40.08263977958663
 30
0.0
 11
68.01966605892221
 21
229.7668618605257
 31
0.0
  0
LINE
  5
1658
330
75
100
AcDbEntity
  8
レイヤ__1
 62
     7
100
AcDbLine
 10
95.42278581933658
 20
117.8183090193597
 30
0.0
 11
93.46185133422627
 21
117.8183090193597
 31
0.0
  0
LINE
  5
1659
330
75
100
AcDbEntity
  8
レイヤ__1
 62
     7
100
AcDbLine
 10
95.42278581933658
 20
118.8412635921152
 30
0.0
 11
93.46185133422627
 21
118.8412635921152
 31
0.0
  0
LINE
  5
165A
330
75
100
AcDbEntity
  8
レイヤ__1
 62
     7
100
AcDbLine
 10
95.42278581933658
 20
119.8642181648709
 30
0.0
 11
93.46185133422627
 21
119.8642181648709
 31
0.0
  0
LINE
  5
165B
330
75
100
AcDbEntity
  8
レイヤ__1
 62
     7
100
AcDbLine
 10
95.42278581933658
 20
120.8871727376265
 30
0.0
 11
93.46185133422627
 21
120.8871727376265
 31
0.0
  0
LINE
  5
165C
330
75
100
AcDbEntity
  8
レイヤ__1
 62
     7
100
AcDbLine
 10
95.42278581933658
 20
121.9101273103822
 30
0.0
 11
93.46185133422627
 21
121.9101273103822
 31
0.0
  0
LINE
  5
165D
330
75
100
AcDbEntity
  8
レイヤ__1
 62
     7
100
AcDbLine
 10
95.42278581933658
 20
122.6531037848479
 30
0.0
 11
93.46185133422627
 21
122.6531037848479
 31
0.0
  0
LINE
  5
165E
330
75
100
AcDbEntity
  8
レイヤ__1
 62
     7
100
AcDbLine
 10
95.42278581933658
 20
123.6760583576036
 30
0.0
 11
93.46185133422627
 21
123.6760583576036
 31
0.0
  0
LINE
  5
165F
330
75
100
AcDbEntity
  8
レイヤ__1
 62
     7
100
AcDbLine
 10
95.42278581933658
 20
124.6990129303591
 30
0.0
 11
93.46185133422627
 21
124.6990129303591
 31
0.0
  0
LINE
  5
1660
330
75
100
AcDbEntity
  8
レイヤ__1
 62
     7
100
AcDbLine
 10
95.42278581933658
 20
125.7219675031149
 30
0.0
 11
93.46185133422627
 21
125.7219675031149
 31
0.0
  0
LINE
  5
1661
330
75
100
AcDbEntity
  8
レイヤ__1
 62
     7
100
AcDbLine
 10
95.42278581933658
 20
126.7449220758704
 30
0.0
 11
93.46185133422627
 21
126.7449220758704
 31
0.0
  0
LINE
  5
1662
330
75
100
AcDbEntity
  8
レイヤ__1
 62
     7
100
AcDbLine
 10
95.42278581933658
 20
127.767876648626
 30
0.0
 11
93.46185133422627
 21
127.767876648626
 31
0.0
  0
LINE
  5
1663
330
75
100
AcDbEntity
  8
レイヤ__1
 62
     7
100
AcDbLine
 10
95.42278581933658
 20
128.7908312213815
 30
0.0
 11
93.46185133422627
 21
128.7908312213815
 31
0.0
  0
LINE
  5
1664
330
75
100
AcDbEntity
  8
レイヤ__1
 62
     7
100
AcDbLine
 10
95.42278581933658
 20
129.8137857941372
 30
0.0
 11
93.46185133422627
 21
129.8137857941372
 31
0.0
  0
LINE
  5
1665
330
75
100
AcDbEntity
  8
レイヤ__1
 62
     7
100
AcDbLine
 10
95.42278581933658
 20
130.8367403668929
 30
0.0
 11
93.46185133422627
 21
130.8367403668929
 31
0.0
  0
LINE
  5
1666
330
75
100
AcDbEntity
  8
レイヤ__1
 62
     7
100
AcDbLine
 10
95.42278581933658
 20
131.859693358548
 30
0.0
 11
93.46185133422627
 21
131.859693358548
 31
0.0
  0
LINE
  5
1667
330
75
100
AcDbEntity
  8
レイヤ__1
 62
     7
100
AcDbLine
 10
95.42278581933658
 20
132.8826479313037
 30
0.0
 11
93.46185133422627
 21
132.8826479313037
 31
0.0
  0
LINE
  5
1668
330
75
100
AcDbEntity
  8
レイヤ__1
 62
     7
100
AcDbLine
 10
95.42278581933658
 20
133.9056025040593
 30
0.0
 11
93.46185133422627
 21
133.9056025040593
 31
0.0
  0
LINE
  5
1669
330
75
100
AcDbEntity
  8
レイヤ__1
 62
     7
100
AcDbLine
 10
95.42278581933658
 20
134.928557076815
 30
0.0
 11
93.46185133422627
 21
134.928557076815
 31
0.0
  0
LINE
  5
166A
330
75
100
AcDbEntity
  8
レイヤ__1
 62
     7
100
AcDbLine
 10
95.42278581933658
 20
135.9515116495705
 30
0.0
 11
93.46185133422627
 21
135.9515116495705
 31
0.0
  0
LINE
  5
166B
330
75
100
AcDbEntity
  8
レイヤ__1
 62
     7
100
AcDbLine
 10
95.42278581933658
 20
136.9744662223261
 30
0.0
 11
93.46185133422627
 21
136.9744662223261
 31
0.0
  0
LINE
  5
166C
330
75
100
AcDbEntity
  8
レイヤ__1
 62
     7
100
AcDbLine
 10
95.42278581933658
 20
137.9974207950817
 30
0.0
 11
93.46185133422627
 21
137.9974207950817
 31
0.0
  0
LINE
  5
166D
330
75
100
AcDbEntity
  8
レイヤ__1
 62
     7
100
AcDbLine
 10
95.42278581933658
 20
139.0203753678372
 30
0.0
 11
93.46185133422627
 21
139.0203753678372
 31
0.0
  0
LINE
  5
166E
330
75
100
AcDbEntity
  8
レイヤ__1
 62
     7
100
AcDbLine
 10
95.42278581933658
 20
140.0433299405929
 30
0.0
 11
93.46185133422627
 21
140.0433299405929
 31
0.0
  0
LINE
  5
166F
330
75
100
AcDbEntity
  8
レイヤ__1
 62
     7
100
AcDbLine
 10
95.42278581933658
 20
140.9660585583987
 30
0.0
 11
93.46185133422627
 21
140.9660585583987
 31
0.0
  0
LINE
  5
1670
330
75
100
AcDbEntity
  8
レイヤ__1
 62
     7
100
AcDbLine
 10
95.42278581933658
 20
141.9890131311544
 30
0.0
 11
93.46185133422627
 21
141.9890131311544
 31
0.0
  0
LINE
  5
1671
330
75
100
AcDbEntity
  8
レイヤ__1
 62
     7
100
AcDbLine
 10
95.42278581933658
 20
143.0119677039099
 30
0.0
 11
93.46185133422627
 21
143.0119677039099
 31
0.0
  0
LINE
  5
1672
330
75
100
AcDbEntity
  8
レイヤ__1
 62
     7
100
AcDbLine
 10
95.42278581933658
 20
144.0349222766656
 30
0.0
 11
93.46185133422627
 21
144.0349222766656
 31
0.0
  0
LINE
  5
1673
330
75
100
AcDbEntity
  8
レイヤ__1
 62
     7
100
AcDbLine
 10
95.42278581933658
 20
145.0578768494207
 30
0.0
 11
93.46185133422627
 21
145.0578768494207
 31
0.0
  0
LINE
  5
1674
330
75
100
AcDbEntity
  8
レイヤ__1
 62
     7
100
AcDbLine
 10
95.42278581933658
 20
146.0808314221766
 30
0.0
 11
93.46185133422627
 21
146.0808314221766
 31
0.0
  0
LINE
  5
1675
330
75
100
AcDbEntity
  8
レイヤ__1
 62
     7
100
AcDbLine
 10
95.42278581933658
 20
147.1037859949326
 30
0.0
 11
93.46185133422627
 21
147.1037859949326
 31
0.0
  0
LINE
  5
1676
330
75
100
AcDbEntity
  8
レイヤ__1
 62
     7
100
AcDbLine
 10
95.42278581933658
 20
148.1267405676877
 30
0.0
 11
93.46185133422627
 21
148.1267405676877
 31
0.0
  0
LINE
  5
1677
330
75
100
AcDbEntity
  8
レイヤ__1
 62
     7
100
AcDbLine
 10
95.42278581933658
 20
149.1496951404436
 30
0.0
 11
93.46185133422627
 21
149.1496951404436
 31
0.0
  0
LINE
  5
1678
330
75
100
AcDbEntity
  8
レイヤ__1
 62
     7
100
AcDbLine
 10
95.42278581933658
 20
150.1726481320987
 30
0.0
 11
93.46185133422627
 21
150.1726481320987
 31
0.0
  0
LINE
  5
1679
330
75
100
AcDbEntity
  8
レイヤ__1
 62
     7
100
AcDbLine
 10
95.42278581933658
 20
151.1956027048547
 30
0.0
 11
93.46185133422627
 21
151.1956027048547
 31
0.0
  0
LINE
  5
167A
330
75
100
AcDbEntity
  8
レイヤ__1
 62
     7
100
AcDbLine
 10
95.42278581933658
 20
152.2185572776097
 30
0.0
 11
93.46185133422627
 21
152.2185572776097
 31
0.0
  0
LINE
  5
167B
330
75
100
AcDbEntity
  8
レイヤ__1
 62
     7
100
AcDbLine
 10
95.42278581933658
 20
153.2415118503657
 30
0.0
 11
93.46185133422627
 21
153.2415118503657
 31
0.0
  0
LINE
  5
167C
330
75
100
AcDbEntity
  8
レイヤ__1
 62
     7
100
AcDbLine
 10
95.42278581933658
 20
154.2644664231215
 30
0.0
 11
93.46185133422627
 21
154.2644664231215
 31
0.0
  0
LINE
  5
167D
330
75
100
AcDbEntity
  8
レイヤ__1
 62
     7
100
AcDbLine
 10
95.42278581933658
 20
155.2874209958767
 30
0.0
 11
93.46185133422627
 21
155.2874209958767
 31
0.0
  0
LINE
  5
167E
330
75
100
AcDbEntity
  8
レイヤ__1
 62
     7
100
AcDbLine
 10
95.42278581933658
 20
156.3103755686326
 30
0.0
 11
93.46185133422627
 21
156.3103755686326
 31
0.0
  0
LINE
  5
167F
330
75
100
AcDbEntity
  8
レイヤ__1
 62
     7
100
AcDbLine
 10
95.42278581933658
 20
157.3333301413877
 30
0.0
 11
93.46185133422627
 21
157.3333301413877
 31
0.0
  0
LINE
  5
1680
330
75
100
AcDbEntity
  8
レイヤ__1
 62
     7
100
AcDbLine
 10
95.42278581933658
 20
158.3562847141437
 30
0.0
 11
93.46185133422627
 21
158.3562847141437
 31
0.0
  0
LINE
  5
1681
330
75
100
AcDbEntity
  8
レイヤ__1
 62
     7
100
AcDbLine
 10
93.46185133422627
 20
117.3596681559119
 30
0.0
 11
95.42278581933658
 21
117.3596681559119
 31
0.0
  0
LINE
  5
1682
330
75
100
AcDbEntity
  8
レイヤ__1
 62
     7
100
AcDbLine
 10
95.42278581933658
 20
117.3596681559119
 30
0.0
 11
95.42278581933658
 21
159.4718380134747
 31
0.0
  0
LINE
  5
1683
330
75
100
AcDbEntity
  8
レイヤ__1
 62
     7
100
AcDbLine
 10
95.42278581933658
 20
159.4718380134747
 30
0.0
 11
93.46185133422627
 21
159.4718380134747
 31
0.0
  0
LINE
  5
1684
330
75
100
AcDbEntity
  8
レイヤ__1
 62
     7
100
AcDbLine
 10
93.46185133422627
 20
159.4718380134747
 30
0.0
 11
93.46185133422627
 21
117.3596681559119
 31
0.0
  0
LINE
  5
1685
330
75
100
AcDbEntity
  8
レイヤ__1
 62
     7
100
AcDbLine
 10
97.55366962524865
 20
126.2928174815149
 30
0.0
 11
96.6058837281553
 21
125.6642288783657
 31
0.0
  0
LINE
  5
1686
330
75
100
AcDbEntity
  8
レイヤ__1
 62
     7
100
AcDbLine
 10
96.6058837281553
 20
125.6642288783657
 30
0.0
 11
96.6058837281553
 21
124.7240686285464
 31
0.0
  0
LINE
  5
1687
330
75
100
AcDbEntity
  8
レイヤ__1
 62
     7
100
AcDbLine
 10
96.6058837281553
 20
124.7240686285464
 30
0.0
 11
97.55366962524865
 21
124.2229420159985
 31
0.0
  0
LINE
  5
1688
330
75
100
AcDbEntity
  8
レイヤ__1
 62
     7
100
AcDbLine
 10
97.55366962524865
 20
124.2229420159985
 30
0.0
 11
98.43826842558236
 21
124.7458577732879
 31
0.0
  0
LINE
  5
1689
330
75
100
AcDbEntity
  8
レイヤ__1
 62
     7
100
AcDbLine
 10
98.43826842558236
 20
124.7458577732879
 30
0.0
 11
98.43826842558236
 21
125.6860164420066
 31
0.0
  0
LINE
  5
168A
330
75
100
AcDbEntity
  8
レイヤ__1
 62
     7
100
AcDbLine
 10
98.43826842558236
 20
125.6860164420066
 30
0.0
 11
97.55366962524865
 21
126.2928174815149
 31
0.0
  0
LINE
  5
168B
330
75
100
AcDbEntity
  8
レイヤ__1
 62
     7
100
AcDbLine
 10
221.9149581813267
 20
143.8100859672159
 30
0.0
 11
228.5043001042897
 21
143.810085967216
 31
0.0
  0
LINE
  5
168C
330
75
100
AcDbEntity
  8
レイヤ__1
 62
     7
100
AcDbLine
 10
228.5043001042897
 20
143.8100859672159
 30
0.0
 11
228.5043001042897
 21
153.6669179419277
 31
0.0
  0
LINE
  5
168D
330
75
100
AcDbEntity
  8
レイヤ__1
 62
     7
100
AcDbLine
 10
228.5043001042897
 20
153.6669179419277
 30
0.0
 11
221.9149581813267
 21
153.6669179419277
 31
0.0
  0
LINE
  5
168E
330
75
100
AcDbEntity
  8
レイヤ__1
 62
     7
100
AcDbLine
 10
227.5043001042897
 20
132.7418270988649
 30
0.0
 11
227.5043001042897
 21
124.5418270988649
 31
0.0
  0
LINE
  5
168F
330
75
100
AcDbEntity
  8
レイヤ__1
 62
     7
100
AcDbLine
 10
226.4507237847586
 20
119.1174901907479
 30
0.0
 11
220.5043001042897
 21
119.1174901907479
 31
0.0
  0
LINE
  5
1690
330
75
100
AcDbEntity
  8
レイヤ__1
 62
     7
100
AcDbLine
 10
220.4901366068227
 20
132.7418270988649
 30
0.0
 11
227.5043001042897
 21
132.7418270988649
 31
0.0
  0
LINE
  5
1691
330
75
100
AcDbEntity
  8
レイヤ__1
 62
     7
100
AcDbLine
 10
220.5043001042897
 20
134.3012272146197
 30
0.0
 11
232.5043001042896
 21
134.3012272146197
 31
0.0
  0
LINE
  5
1692
330
75
100
AcDbEntity
  8
レイヤ__1
 62
     7
100
AcDbLine
 10
232.5043001042896
 20
134.3012272146197
 30
0.0
 11
232.5043001042896
 21
122.5648857320075
 31
0.0
  0
LINE
  5
1693
330
75
100
AcDbEntity
  8
レイヤ__1
 62
     7
100
AcDbLine
 10
198.4176333743776
 20
144.4521667691956
 30
0.0
 11
200.0620963826496
 21
143.9815411646446
 31
0.0
  0
LINE
  5
1694
330
75
100
AcDbEntity
  8
レイヤ__1
 62
     7
100
AcDbLine
 10
198.4176333743776
 20
132.4686747355208
 30
0.0
 11
200.0620963826496
 21
133.1735213925145
 31
0.0
  0
LINE
  5
1695
330
75
100
AcDbEntity
  8
レイヤ__1
 62
     7
100
AcDbLine
 10
210.6353496226957
 20
116.4914116094095
 30
0.0
 11
210.6353496226957
 21
116.7256342429527
 31
0.0
  0
LINE
  5
1696
330
75
100
AcDbEntity
  8
レイヤ__1
 62
     7
100
AcDbLine
 10
220.5043001042897
 20
113.2013977957842
 30
0.0
 11
220.5043001042897
 21
163.9362347104617
 31
0.0
  0
LINE
  5
1697
330
75
100
AcDbEntity
  8
レイヤ__1
 62
     7
100
AcDbLine
 10
220.5043001042897
 20
128.474903643084
 30
0.0
 11
220.5043001042897
 21
128.474903643084
 31
0.0
  0
LINE
  5
1698
330
75
100
AcDbEntity
  8
レイヤ__1
 62
     7
100
AcDbLine
 10
220.5043001042897
 20
148.6812498733577
 30
0.0
 11
220.5043001042897
 21
148.6812498733577
 31
0.0
  0
LINE
  5
1699
330
75
100
AcDbEntity
  8
レイヤ__1
 62
     7
100
AcDbLine
 10
203.5183558086726
 20
147.0362429665446
 30
0.0
 11
202.7020872010766
 21
148.6812498733577
 31
0.0
  0
LINE
  5
169A
330
75
100
AcDbEntity
  8
レイヤ__1
 62
     7
100
AcDbLine
 10
202.6472619581816
 20
128.474903643084
 30
0.0
 11
203.1173420830906
 21
130.1188195906142
 31
0.0
  0
LINE
  5
169B
330
75
100
AcDbEntity
  8
レイヤ__1
 62
     7
100
AcDbLine
 10
220.5043001042897
 20
148.6812498733577
 30
0.0
 11
219.0946052092026
 21
148.6812498733577
 31
0.0
  0
LINE
  5
169C
330
75
100
AcDbEntity
  8
レイヤ__1
 62
     7
100
AcDbLine
 10
202.6472619581816
 20
128.474903643084
 30
0.0
 11
220.5043001042897
 21
128.474903643084
 31
0.0
  0
LINE
  5
169D
330
75
100
AcDbEntity
  8
レイヤ__1
 62
     7
100
AcDbLine
 10
202.7020872010766
 20
148.6812498733577
 30
0.0
 11
219.0946052092026
 21
148.6812498733577
 31
0.0
  0
LINE
  5
169E
330
75
100
AcDbEntity
  8
レイヤ__1
 62
     7
100
AcDbLine
 10
219.0946052092026
 20
116.9620356328599
 30
0.0
 11
219.0946052092026
 21
116.9620356328599
 31
0.0
  0
LINE
  5
169F
330
75
100
AcDbEntity
  8
レイヤ__1
 62
     7
100
AcDbLine
 10
219.0946052092026
 20
116.9620356328599
 30
0.0
 11
210.6353496226957
 21
116.4914116094095
 31
0.0
  0
LINE
  5
16A0
330
75
100
AcDbEntity
  8
レイヤ__1
 62
     7
100
AcDbLine
 10
210.6353496226957
 20
116.4914116094095
 30
0.0
 11
210.6353496226957
 21
116.4914116094095
 31
0.0
  0
LINE
  5
16A1
330
75
100
AcDbEntity
  8
レイヤ__1
 62
     7
100
AcDbLine
 10
219.0946052092026
 20
147.0362429665446
 30
0.0
 11
219.0946052092026
 21
130.1188195906142
 31
0.0
  0
LINE
  5
16A2
330
75
100
AcDbEntity
  8
レイヤ__1
 62
     7
100
AcDbLine
 10
220.5043001042897
 20
159.4892696454877
 30
0.0
 11
219.0946052092026
 21
160.1941178835817
 31
0.0
  0
LINE
  5
16A3
330
75
100
AcDbEntity
  8
レイヤ__1
 62
     7
100
AcDbLine
 10
219.0946052092026
 20
164.1878889760187
 30
0.0
 11
220.5043001042897
 21
162.5439714473877
 31
0.0
  0
LINE
  5
16A4
330
75
100
AcDbEntity
  8
レイヤ__1
 62
     7
100
AcDbLine
 10
219.0946052092026
 20
116.9620356328599
 30
0.0
 11
220.5043001042897
 21
117.6668822898534
 31
0.0
  0
LINE
  5
16A5
330
75
100
AcDbEntity
  8
レイヤ__1
 62
     7
100
AcDbLine
 10
220.5043001042897
 20
113.2013977957842
 30
0.0
 11
219.0946052092026
 21
111.5563908889716
 31
0.0
  0
LINE
  5
16A6
330
75
100
AcDbEntity
  8
レイヤ__1
 62
     7
100
AcDbLine
 10
220.5043001042897
 20
114.6121820690537
 30
0.0
 11
219.0946052092026
 21
113.2013977957842
 31
0.0
  0
LINE
  5
16A7
330
75
100
AcDbEntity
  8
レイヤ__1
 62
     7
100
AcDbLine
 10
219.0946052092026
 20
128.474903643084
 30
0.0
 11
219.0946052092026
 21
111.5563908889716
 31
0.0
  0
LINE
  5
16A8
330
75
100
AcDbEntity
  8
レイヤ__1
 62
     7
100
AcDbLine
 10
219.0946052092026
 20
164.1878889760187
 30
0.0
 11
210.6353496226957
 21
164.6585129994687
 31
0.0
  0
LINE
  5
16A9
330
75
100
AcDbEntity
  8
レイヤ__1
 62
     7
100
AcDbLine
 10
210.6353496226957
 20
128.474903643084
 30
0.0
 11
210.6353496226957
 21
110.85263361016
 31
0.0
  0
LINE
  5
16AA
330
75
100
AcDbEntity
  8
レイヤ__1
 62
     7
100
AcDbLine
 10
210.6353496226957
 20
166.0671185163737
 30
0.0
 11
210.6353496226957
 21
148.6812498733577
 31
0.0
  0
LINE
  5
16AB
330
75
100
AcDbEntity
  8
レイヤ__1
 62
     7
100
AcDbLine
 10
219.0946052092026
 20
165.5986716681877
 30
0.0
 11
210.6353496226957
 21
166.0671185163737
 31
0.0
  0
LINE
  5
16AC
330
75
100
AcDbEntity
  8
レイヤ__1
 62
     7
100
AcDbLine
 10
210.6353496226957
 20
110.85263361016
 30
0.0
 11
219.0946052092026
 21
111.5563908889716
 31
0.0
  0
LINE
  5
16AD
330
75
100
AcDbEntity
  8
レイヤ__1
 62
     7
100
AcDbLine
 10
208.5218974487978
 20
112.4965495576903
 30
0.0
 11
210.6353496226957
 21
112.4965495576903
 31
0.0
  0
LINE
  5
16AE
330
75
100
AcDbEntity
  8
レイヤ__1
 62
     7
100
AcDbLine
 10
208.2996563941566
 20
164.6585129994687
 30
0.0
 11
210.6353496226957
 21
164.6585129994687
 31
0.0
  0
LINE
  5
16AF
330
75
100
AcDbEntity
  8
レイヤ__1
 62
     7
100
AcDbLine
 10
208.5218974487978
 20
116.4914116094095
 30
0.0
 11
210.6353496226957
 21
116.4914116094095
 31
0.0
  0
LINE
  5
16B0
330
75
100
AcDbEntity
  8
レイヤ__1
 62
     7
100
AcDbLine
 10
208.2996563941566
 20
160.6636525288496
 30
0.0
 11
210.6353496226957
 21
160.6636525288496
 31
0.0
  0
LINE
  5
16B1
330
75
100
AcDbEntity
  8
レイヤ__1
 62
     7
100
AcDbLine
 10
124.0121295822717
 20
148.6289565584177
 30
0.0
 11
99.2368047684333
 21
148.6289565584177
 31
0.0
  0
LINE
  5
16B2
330
75
100
AcDbEntity
  8
レイヤ__1
 62
     7
100
AcDbLine
 10
99.50098609253323
 20
128.6786205253289
 30
0.0
 11
124.0121295822717
 21
128.6492073144134
 31
0.0
  0
LINE
  5
16B3
330
75
100
AcDbEntity
  8
レイヤ__1
 62
     7
100
AcDbLine
 10
116.0191405064879
 20
114.4683794057214
 30
0.0
 11
103.1810083630364
 21
116.8084269847886
 31
0.0
  0
LINE
  5
16B4
330
75
100
AcDbEntity
  8
レイヤ__1
 62
     7
100
AcDbLine
 10
102.965849057129
 20
160.3499005447156
 30
0.0
 11
116.0191405064879
 21
162.7476883296327
 31
0.0
  0
LINE
  5
16B5
330
75
100
AcDbEntity
  8
レイヤ__1
 62
     7
100
AcDbLine
 10
123.4788639417027
 20
147.2966106764566
 30
0.0
 11
124.0121295822717
 21
148.6289565584177
 31
0.0
  0
LINE
  5
16B6
330
75
100
AcDbEntity
  8
レイヤ__1
 62
     7
100
AcDbLine
 10
101.6345925533503
 20
147.2966106764566
 30
0.0
 11
116.0191405064879
 21
147.2966106764566
 31
0.0
  0
LINE
  5
16B7
330
75
100
AcDbEntity
  8
レイヤ__1
 62
     7
100
AcDbLine
 10
126.6740986912886
 20
144.1002865486892
 30
0.0
 11
128.0075355325319
 21
144.6330067096167
 31
0.0
  0
LINE
  5
16B8
330
75
100
AcDbEntity
  8
レイヤ__1
 62
     7
100
AcDbLine
 10
126.6740986912886
 20
133.1778773241421
 30
0.0
 11
128.0075355325319
 21
132.6451571632145
 31
0.0
  0
LINE
  5
16B9
330
75
100
AcDbEntity
  8
レイヤ__1
 62
     7
100
AcDbLine
 10
123.4788639417027
 20
129.9815531963743
 30
0.0
 11
124.0121295822717
 21
128.6492073144134
 31
0.0
  0
LINE
  5
16BA
330
75
100
AcDbEntity
  8
レイヤ__1
 62
     7
100
AcDbLine
 10
100.834966832317
 20
112.1326861771815
 30
0.0
 11
116.0191405064879
 21
108.9363620494136
 31
0.0
  0
LINE
  5
16BB
330
75
100
AcDbEntity
  8
レイヤ__1
 62
     7
100
AcDbLine
 10
116.0191405064879
 20
108.9363620494136
 30
0.0
 11
116.0191405064879
 21
128.6492073144134
 31
0.0
  0
LINE
  5
16BC
330
75
100
AcDbEntity
  8
レイヤ__1
 62
     7
100
AcDbLine
 10
116.0191405064879
 20
148.6289565584177
 30
0.0
 11
116.0191405064879
 21
161.6822480077767
 31
0.0
  0
LINE
  5
16BD
330
75
100
AcDbEntity
  8
レイヤ__1
 62
     7
100
AcDbLine
 10
116.0333024228545
 20
166.3950276735736
 30
0.0
 11
101.3457713881452
 21
164.1179334556927
 31
0.0
  0
LINE
  5
16BE
330
75
100
AcDbEntity
  8
レイヤ__1
 62
     7
100
AcDbLine
 10
116.0191405064879
 20
166.7436397595337
 30
0.0
 11
116.0191405064879
 21
166.7436397595337
 31
0.0
  0
LINE
  5
16BF
330
75
100
AcDbEntity
  8
レイヤ__1
 62
     7
100
AcDbLine
 10
100.834966832317
 20
112.1326861771815
 30
0.0
 11
99.1438510636533
 21
113.5425268028854
 31
0.0
  0
LINE
  5
16C0
330
75
100
AcDbEntity
  8
レイヤ__1
 62
     7
100
AcDbLine
 10
99.14385106365321
 20
113.5425268028856
 30
0.0
 11
97.90391340683122
 21
119.3249601537504
 31
0.0
  0
LINE
  5
16C1
330
75
100
AcDbEntity
  8
レイヤ__1
 62
     7
100
AcDbLine
 10
97.90391340683122
 20
157.6862981589757
 30
0.0
 11
98.70353912786431
 21
161.4153424476717
 31
0.0
  0
LINE
  5
16C2
330
75
100
AcDbEntity
  8
レイヤ__1
 62
     7
100
AcDbLine
 10
100.834966832317
 20
161.9491519867817
 30
0.0
 11
97.90391340683122
 21
151.0267443433347
 31
0.0
  0
LINE
  5
16C3
330
75
100
AcDbEntity
  8
レイヤ__1
 62
     7
100
AcDbLine
 10
100.834966832317
 20
114.5304739620985
 30
0.0
 11
98.97044468796934
 21
122.2565590588776
 31
0.0
  0
LINE
  5
16C4
330
75
100
AcDbEntity
  8
レイヤ__1
 62
     7
100
AcDbLine
 10
97.90391340683122
 20
119.3249601537504
 30
0.0
 11
97.90391340683122
 21
122.2565590588776
 31
0.0
  0
LINE
  5
16C5
330
75
100
AcDbEntity
  8
レイヤ__1
 62
     7
100
AcDbLine
 10
97.90391340683122
 20
154.7557886320307
 30
0.0
 11
97.90391340683122
 21
157.6862981589757
 31
0.0
  0
LINE
  5
16C6
330
75
100
AcDbEntity
  8
レイヤ__1
 62
     7
100
AcDbLine
 10
97.90391340683122
 20
148.6289565584177
 30
0.0
 11
97.90391340683122
 21
151.0267443433347
 31
0.0
  0
LINE
  5
16C7
330
75
100
AcDbEntity
  8
レイヤ__1
 62
     7
100
AcDbLine
 10
97.90391340683122
 20
151.0267443433347
 30
0.0
 11
97.90391340683122
 21
154.7557886320307
 31
0.0
  0
LINE
  5
16C8
330
75
100
AcDbEntity
  8
レイヤ__1
 62
     7
100
AcDbLine
 10
97.90391340683122
 20
122.2565590588776
 30
0.0
 11
97.90391340683122
 21
123.5889049408384
 31
0.0
  0
LINE
  5
16C9
330
75
100
AcDbEntity
  8
レイヤ__1
 62
     7
100
AcDbLine
 10
95.50612562191416
 20
119.3249601537504
 30
0.0
 11
95.50612562191416
 21
157.6862981589757
 31
0.0
  0
LINE
  5
16CA
330
75
100
AcDbEntity
  8
レイヤ__1
 62
     7
100
AcDbLine
 10
97.90391340683122
 20
119.3249601537504
 30
0.0
 11
95.50612562191416
 21
119.3249601537504
 31
0.0
  0
LINE
  5
16CB
330
75
100
AcDbEntity
  8
レイヤ__1
 62
     7
100
AcDbLine
 10
97.90391340683122
 20
157.6862981589757
 30
0.0
 11
95.50612562191416
 21
157.6862981589757
 31
0.0
  0
LINE
  5
16CC
330
75
100
AcDbEntity
  8
レイヤ__1
 62
     7
100
AcDbLine
 10
97.90391340683122
 20
122.1755041541649
 30
0.0
 11
100.834966832317
 21
113.1981280801376
 31
0.0
  0
LINE
  5
16CD
330
75
100
AcDbEntity
  8
レイヤ__1
 62
     7
100
AcDbLine
 10
100.834966832317
 20
114.5304739620985
 30
0.0
 11
100.834966832317
 21
113.1981280801376
 31
0.0
  0
LINE
  5
16CE
330
75
100
AcDbEntity
  8
レイヤ__1
 62
     7
100
AcDbLine
 10
99.77061430754329
 20
130.7800895392252
 30
0.0
 11
99.50371032853848
 21
128.6492073144134
 31
0.0
  0
LINE
  5
16CF
330
75
100
AcDbEntity
  8
レイヤ__1
 62
     7
100
AcDbLine
 10
99.77061430754329
 20
146.4980743336067
 30
0.0
 11
99.77061430754329
 21
130.7800895392252
 31
0.0
  0
LINE
  5
16D0
330
75
100
AcDbEntity
  8
レイヤ__1
 62
     7
100
AcDbLine
 10
99.2368047684333
 20
148.6289565584177
 30
0.0
 11
99.77061430754329
 21
146.4980743336067
 31
0.0
  0
LINE
  5
16D1
330
75
100
AcDbEntity
  8
レイヤ__1
 62
     7
100
AcDbLine
 10
99.77061430754329
 20
130.7800895392252
 30
0.0
 11
101.6345925533503
 21
129.9815531963743
 31
0.0
  0
LINE
  5
16D2
330
75
100
AcDbEntity
  8
レイヤ__1
 62
     7
100
AcDbLine
 10
101.6345925533503
 20
147.2966106764566
 30
0.0
 11
99.77061430754329
 21
146.4980743336067
 31
0.0
  0
LINE
  5
16D3
330
75
100
AcDbEntity
  8
レイヤ__1
 62
     7
100
AcDbLine
 10
116.0191405064879
 20
129.9815531963743
 30
0.0
 11
101.6345925533503
 21
129.9815531963743
 31
0.0
  0
LINE
  5
16D4
330
75
100
AcDbEntity
  8
レイヤ__1
 62
     7
100
AcDbLine
 10
99.2368047684333
 20
148.6289565584177
 30
0.0
 11
97.90391340683122
 21
147.2966106764566
 31
0.0
  0
LINE
  5
16D5
330
75
100
AcDbEntity
  8
レイヤ__1
 62
     7
100
AcDbLine
 10
99.77061430754329
 20
146.4980743336067
 30
0.0
 11
97.90391340683122
 21
146.4980743336067
 31
0.0
  0
LINE
  5
16D6
330
75
100
AcDbEntity
  8
レイヤ__1
 62
     7
100
AcDbLine
 10
99.77061430754329
 20
130.7800895392252
 30
0.0
 11
97.90391340683122
 21
130.7800895392252
 31
0.0
  0
LINE
  5
16D7
330
75
100
AcDbEntity
  8
レイヤ__1
 62
     7
100
AcDbLine
 10
101.3682324728863
 20
128.6492073144134
 30
0.0
 11
101.3682324728863
 21
117.9937036499715
 31
0.0
  0
LINE
  5
16D8
330
75
100
AcDbEntity
  8
レイヤ__1
 62
     7
100
AcDbLine
 10
100.834966832317
 20
163.8131302325887
 30
0.0
 11
97.90554826465459
 21
154.6239707098017
 31
0.0
  0
LINE
  5
16D9
330
75
100
AcDbEntity
  8
レイヤ__1
 62
     7
100
AcDbLine
 10
102.9484190062162
 20
160.3183085774356
 30
0.0
 11
102.9484190062162
 21
148.6289565584177
 31
0.0
  0
LINE
  5
16DA
330
75
100
AcDbEntity
  8
レイヤ__1
 62
     7
100
AcDbLine
 10
103.0030694641369
 20
164.3748741121747
 30
0.0
 11
100.834966832317
 21
162.7476883296327
 31
0.0
  0
LINE
  5
16DB
330
75
100
AcDbEntity
  8
レイヤ__1
 62
     7
100
AcDbLine
 10
116.0191405064879
 20
110.5345241132976
 30
0.0
 11
100.834966832317
 21
113.1981280801376
 31
0.0
  0
LINE
  5
16DC
330
75
100
AcDbEntity
  8
レイヤ__1
 62
     7
100
AcDbLine
 10
100.834966832317
 20
115.5959158650546
 30
0.0
 11
101.3682324728863
 21
117.9937036499715
 31
0.0
  0
LINE
  5
16DD
330
75
100
AcDbEntity
  8
レイヤ__1
 62
     7
100
AcDbLine
 10
116.0191405064879
 20
168.0748962633127
 30
0.0
 11
118.3417596157427
 21
168.0748962633127
 31
0.0
  0
LINE
  5
16DE
330
75
100
AcDbEntity
  8
レイヤ__1
 62
     7
100
AcDbLine
 10
118.3417596157427
 20
108.9363620494136
 30
0.0
 11
116.0191405064879
 21
108.9363620494136
 31
0.0
  0
LINE
  5
16DF
330
75
100
AcDbEntity
  8
レイヤ__1
 62
     7
100
AcDbLine
 10
116.0191405064879
 20
161.6822480077767
 30
0.0
 11
116.0191405064879
 21
168.0748962633127
 31
0.0
  0
LINE
  5
16E0
330
75
100
AcDbEntity
  8
レイヤ__1
 62
     7
100
AcDbLine
 10
198.3751460441776
 20
138.5650026389357
 30
0.0
 11
128.1181113707614
 21
138.5650026389357
 31
0.0
  0
LINE
  5
16E1
330
75
100
AcDbEntity
  8
レイヤ__1
 62
     7
100
AcDbLine
 10
128.5157454749136
 20
108.5790365190977
 30
0.0
 11
128.5157454749136
 21
108.5790365190977
 31
0.0
  0
LINE
  5
16E2
330
75
100
AcDbEntity
  8
レイヤ__1
 62
     7
100
AcDbLine
 10
168.4077009345346
 20
108.8459420792028
 30
0.0
 11
168.4077009345346
 21
108.8459420792028
 31
0.0
  0
LINE
  5
16E3
330
75
100
AcDbEntity
  8
レイヤ__1
 62
     7
100
AcDbLine
 10
163.3212534845907
 20
108.5790365190977
 30
0.0
 11
168.4077009345346
 21
108.8459420792028
 31
0.0
  0
LINE
  5
16E4
330
75
100
AcDbEntity
  8
レイヤ__1
 62
     7
100
AcDbLine
 10
163.3212534845907
 20
110.7208141068304
 30
0.0
 11
208.5218974487978
 21
112.4965495576903
 31
0.0
  0
LINE
  5
16E5
330
75
100
AcDbEntity
  8
レイヤ__1
 62
     7
100
AcDbLine
 10
128.5157454749136
 20
108.5790365190977
 30
0.0
 11
163.3212534845907
 21
108.5790365190977
 31
0.0
  0
LINE
  5
16E6
330
75
100
AcDbEntity
  8
レイヤ__1
 62
     7
100
AcDbLine
 10
128.5157454749136
 20
108.5790365190977
 30
0.0
 11
128.5157454749136
 21
108.5790365190977
 31
0.0
  0
LINE
  5
16E7
330
75
100
AcDbEntity
  8
レイヤ__1
 62
     7
100
AcDbLine
 10
118.3417596157427
 20
108.9363620494136
 30
0.0
 11
128.5157454749136
 21
108.5790365190977
 31
0.0
  0
LINE
  5
16E8
330
75
100
AcDbEntity
  8
レイヤ__1
 62
     7
100
AcDbLine
 10
208.5218974487978
 20
116.4914116094095
 30
0.0
 11
163.3212534845907
 21
114.4683794057214
 31
0.0
  0
LINE
  5
16E9
330
75
100
AcDbEntity
  8
レイヤ__1
 62
     7
100
AcDbLine
 10
115.9635822192031
 20
110.7208141068304
 30
0.0
 11
163.3212534845907
 21
110.7208141068304
 31
0.0
  0
LINE
  5
16EA
330
75
100
AcDbEntity
  8
レイヤ__1
 62
     7
100
AcDbLine
 10
163.3212534845907
 20
114.4683794057214
 30
0.0
 11
116.0191405064879
 21
114.4683794057214
 31
0.0
  0
LINE
  5
16EB
330
75
100
AcDbEntity
  8
レイヤ__1
 62
     7
100
AcDbLine
 10
168.4077009345346
 20
108.8459420792028
 30
0.0
 11
168.4077009345346
 21
108.8459420792028
 31
0.0
  0
LINE
  5
16EC
330
75
100
AcDbEntity
  8
レイヤ__1
 62
     7
100
AcDbLine
 10
128.5157454749136
 20
108.5790365190977
 30
0.0
 11
127.9797555983393
 21
110.7208141068304
 31
0.0
  0
LINE
  5
16ED
330
75
100
AcDbEntity
  8
レイヤ__1
 62
     7
100
AcDbLine
 10
198.9558324631036
 20
112.1207407366084
 30
0.0
 11
198.1256721160857
 21
110.1848242302559
 31
0.0
  0
LINE
  5
16EE
330
75
100
AcDbEntity
  8
レイヤ__1
 62
     7
100
AcDbLine
 10
163.3212534845907
 20
108.5790365190977
 30
0.0
 11
168.4077009345346
 21
108.8459420792028
 31
0.0
  0
LINE
  5
16EF
330
75
100
AcDbEntity
  8
レイヤ__1
 62
     7
100
AcDbLine
 10
168.4077009345346
 20
108.8459420792028
 30
0.0
 11
198.1256721160857
 21
110.1848242302559
 31
0.0
  0
LINE
  5
16F0
330
75
100
AcDbEntity
  8
レイヤ__1
 62
     7
100
AcDbLine
 10
198.1256721160857
 20
110.1848242302559
 30
0.0
 11
208.5218974487978
 21
110.85263361016
 31
0.0
  0
LINE
  5
16F1
330
75
100
AcDbEntity
  8
レイヤ__1
 62
     7
100
AcDbLine
 10
118.3417596157427
 20
110.4528191685431
 30
0.0
 11
118.3417596157427
 21
110.7208141068304
 31
0.0
  0
LINE
  5
16F2
330
75
100
AcDbEntity
  8
レイヤ__1
 62
     7
100
AcDbLine
 10
118.3417596157427
 20
108.9363620494136
 30
0.0
 11
118.3417596157427
 21
128.5598767223846
 31
0.0
  0
LINE
  5
16F3
330
75
100
AcDbEntity
  8
レイヤ__1
 62
     7
100
AcDbLine
 10
128.5157454749136
 20
108.5616064681849
 30
0.0
 11
128.5157454749136
 21
108.5616064681849
 31
0.0
  0
LINE
  5
16F4
330
75
100
AcDbEntity
  8
レイヤ__1
 62
     7
100
AcDbLine
 10
168.4077009345346
 20
108.8285120282899
 30
0.0
 11
168.4077009345346
 21
108.8285120282899
 31
0.0
  0
LINE
  5
16F5
330
75
100
AcDbEntity
  8
レイヤ__1
 62
     7
100
AcDbLine
 10
128.5157454749136
 20
108.5616064681849
 30
0.0
 11
128.5157454749136
 21
108.5616064681849
 31
0.0
  0
LINE
  5
16F6
330
75
100
AcDbEntity
  8
レイヤ__1
 62
     7
100
AcDbLine
 10
168.4077009345346
 20
108.8285120282899
 30
0.0
 11
168.4077009345346
 21
108.8285120282899
 31
0.0
  0
LINE
  5
16F7
330
75
100
AcDbEntity
  8
レイヤ__1
 62
     7
100
AcDbLine
 10
128.5157454749136
 20
168.5204645885756
 30
0.0
 11
128.5157454749136
 21
168.5204645885756
 31
0.0
  0
LINE
  5
16F8
330
75
100
AcDbEntity
  8
レイヤ__1
 62
     7
100
AcDbLine
 10
168.4077009345346
 20
168.2535590284706
 30
0.0
 11
168.4077009345346
 21
168.2535590284706
 31
0.0
  0
LINE
  5
16F9
330
75
100
AcDbEntity
  8
レイヤ__1
 62
     7
100
AcDbLine
 10
168.4077009345346
 20
168.2535590284706
 30
0.0
 11
163.3212534845907
 21
168.5204645885756
 31
0.0
  0
LINE
  5
16FA
330
75
100
AcDbEntity
  8
レイヤ__1
 62
     7
100
AcDbLine
 10
210.6353496226957
 20
166.0671185163737
 30
0.0
 11
208.2996563941566
 21
166.1106936436567
 31
0.0
  0
LINE
  5
16FB
330
75
100
AcDbEntity
  8
レイヤ__1
 62
     7
100
AcDbLine
 10
208.2996563941566
 20
166.1106936436567
 30
0.0
 11
208.2996563941566
 21
148.6398519213387
 31
0.0
  0
LINE
  5
16FC
330
75
100
AcDbEntity
  8
レイヤ__1
 62
     7
100
AcDbLine
 10
208.2996563941566
 20
164.5049059324977
 30
0.0
 11
208.2996563941566
 21
164.5049059324977
 31
0.0
  0
LINE
  5
16FD
330
75
100
AcDbEntity
  8
レイヤ__1
 62
     7
100
AcDbLine
 10
208.2996563941566
 20
160.4882563171377
 30
0.0
 11
208.2996563941566
 21
160.4882563171377
 31
0.0
  0
LINE
  5
16FE
330
75
100
AcDbEntity
  8
レイヤ__1
 62
     7
100
AcDbLine
 10
208.2996563941566
 20
164.6585129994687
 30
0.0
 11
163.3212534845907
 21
166.3786885819436
 31
0.0
  0
LINE
  5
16FF
330
75
100
AcDbEntity
  8
レイヤ__1
 62
     7
100
AcDbLine
 10
163.3212534845907
 20
168.5204645885756
 30
0.0
 11
128.5157454749136
 21
168.5204645885756
 31
0.0
  0
LINE
  5
1700
330
75
100
AcDbEntity
  8
レイヤ__1
 62
     7
100
AcDbLine
 10
128.5157454749136
 20
168.5204645885756
 30
0.0
 11
128.5157454749136
 21
168.5204645885756
 31
0.0
  0
LINE
  5
1701
330
75
100
AcDbEntity
  8
レイヤ__1
 62
     7
100
AcDbLine
 10
128.5157454749136
 20
168.5204645885756
 30
0.0
 11
118.3417596157427
 21
168.0748962633127
 31
0.0
  0
LINE
  5
1702
330
75
100
AcDbEntity
  8
レイヤ__1
 62
     7
100
AcDbLine
 10
163.3212534845907
 20
162.6311232830527
 30
0.0
 11
208.2996563941566
 21
160.6636525288496
 31
0.0
  0
LINE
  5
1703
330
75
100
AcDbEntity
  8
レイヤ__1
 62
     7
100
AcDbLine
 10
208.2996563941566
 20
160.4882563171377
 30
0.0
 11
208.2996563941566
 21
160.4882563171377
 31
0.0
  0
LINE
  5
1704
330
75
100
AcDbEntity
  8
レイヤ__1
 62
     7
100
AcDbLine
 10
163.3212534845907
 20
166.3786885819436
 30
0.0
 11
116.0333040039549
 21
166.3786885819436
 31
0.0
  0
LINE
  5
1705
330
75
100
AcDbEntity
  8
レイヤ__1
 62
     7
100
AcDbLine
 10
115.8938588533509
 20
162.6311232830527
 30
0.0
 11
163.3212534845907
 21
162.6311232830527
 31
0.0
  0
LINE
  5
1706
330
75
100
AcDbEntity
  8
レイヤ__1
 62
     7
100
AcDbLine
 10
168.4077009345346
 20
168.2535590284706
 30
0.0
 11
168.4077009345346
 21
168.2535590284706
 31
0.0
  0
LINE
  5
1707
330
75
100
AcDbEntity
  8
レイヤ__1
 62
     7
100
AcDbLine
 10
127.9797555983393
 20
166.3786885819436
 30
0.0
 11
128.5157454749136
 21
168.5204645885756
 31
0.0
  0
LINE
  5
1708
330
75
100
AcDbEntity
  8
レイヤ__1
 62
     7
100
AcDbLine
 10
198.1256721160857
 20
166.9146768774177
 30
0.0
 11
198.9396569618256
 21
165.0164813005627
 31
0.0
  0
LINE
  5
1709
330
75
100
AcDbEntity
  8
レイヤ__1
 62
     7
100
AcDbLine
 10
168.4077009345346
 20
168.2535590284706
 30
0.0
 11
163.3212534845907
 21
168.5204645885756
 31
0.0
  0
LINE
  5
170A
330
75
100
AcDbEntity
  8
レイヤ__1
 62
     7
100
AcDbLine
 10
198.1256721160857
 20
166.9146768774177
 30
0.0
 11
168.4077009345346
 21
168.2535590284706
 31
0.0
  0
LINE
  5
170B
330
75
100
AcDbEntity
  8
レイヤ__1
 62
     7
100
AcDbLine
 10
208.2996563941566
 20
166.1106936436567
 30
0.0
 11
198.1256721160857
 21
166.9146768774177
 31
0.0
  0
LINE
  5
170C
330
75
100
AcDbEntity
  8
レイヤ__1
 62
     7
100
AcDbLine
 10
118.3417596157427
 20
166.3786885819436
 30
0.0
 11
118.3417596157427
 21
166.6466819391307
 31
0.0
  0
LINE
  5
170D
330
75
100
AcDbEntity
  8
レイヤ__1
 62
     7
100
AcDbLine
 10
118.3417596157427
 20
148.6398519213387
 30
0.0
 11
118.3417596157427
 21
168.0748962633127
 31
0.0
  0
LINE
  5
170E
330
75
100
AcDbEntity
  8
レイヤ__1
 62
     7
100
AcDbLine
 10
309.4972904749617
 20
166.7596312202217
 30
0.0
 11
307.6168937841207
 21
168.2449557333915
 31
0.0
  0
LINE
  5
170F
330
75
100
AcDbEntity
  8
レイヤ__1
 62
     7
100
AcDbLine
 10
271.5550426561977
 20
168.0008837695167
 30
0.0
 11
269.7715136369436
 21
166.5650026389356
 31
0.0
  0
LINE
  5
1710
330
75
100
AcDbEntity
  8
レイヤ__1
 62
     7
100
AcDbLine
 10
279.5732555403837
 20
166.5650026389356
 30
0.0
 11
271.5453833068966
 21
167.9931072336456
 31
0.0
  0
LINE
  5
1711
330
75
100
AcDbEntity
  8
レイヤ__1
 62
     7
100
AcDbLine
 10
307.6985667430397
 20
168.2440060638507
 30
0.0
 11
299.4685030699348
 21
166.5650026389356
 31
0.0
  0
LINE
  5
1712
330
75
100
AcDbEntity
  8
レイヤ__1
 62
     7
100
AcDbLine
 10
306.0555929509527
 20
168.5650026389357
 30
0.0
 11
298.2585896155167
 21
167.9201591018097
 31
0.0
  0
LINE
  5
1713
330
75
100
AcDbEntity
  8
レイヤ__1
 62
     7
100
AcDbLine
 10
280.5505606548898
 20
167.8394358124316
 30
0.0
 11
273.8476083331207
 21
168.5650026389357
 31
0.0
  0
LINE
  5
1714
330
75
100
AcDbEntity
  8
レイヤ__1
 62
     7
100
AcDbLine
 10
307.4554444487057
 20
168.2440060638507
 30
0.0
 11
306.0555929509527
 21
168.5650026389357
 31
0.0
  0
LINE
  5
1715
330
75
100
AcDbEntity
  8
レイヤ__1
 62
     7
100
AcDbLine
 10
273.8476083331207
 20
168.5650026389357
 30
0.0
 11
271.5453833068966
 21
167.9931072336456
 31
0.0
  0
LINE
  5
1716
330
75
100
AcDbEntity
  8
レイヤ__1
 62
     7
100
AcDbLine
 10
306.0555929509527
 20
168.5650026389357
 30
0.0
 11
273.8476083331207
 21
168.5650026389357
 31
0.0
  0
CIRCLE
  5
1717
330
75
100
AcDbEntity
  8
レイヤ__1
 62
     7
100
AcDbCircle
 10
283.3246225727707
 20
147.2428485951026
 30
0.0
 40
1.507166912629668
  0
CIRCLE
  5
1718
330
75
100
AcDbEntity
  8
レイヤ__1
 62
     7
100
AcDbCircle
 10
267.2263275919409
 20
147.3368686363946
 30
0.0
 40
1.5081165821714
  0
CIRCLE
  5
1719
330
75
100
AcDbEntity
  8
レイヤ__1
 62
     7
100
AcDbCircle
 10
275.2683525607927
 20
154.3057366998287
 30
0.0
 40
1.5081165821714
  0
CIRCLE
  5
171A
330
75
100
AcDbEntity
  8
レイヤ__1
 62
     7
100
AcDbCircle
 10
275.2664532217086
 20
147.3121772283096
 30
0.0
 40
1.5081165821714
  0
CIRCLE
  5
171B
330
75
100
AcDbEntity
  8
レイヤ__1
 62
     7
100
AcDbCircle
 10
275.2208677053757
 20
140.2302943544188
 30
0.0
 40
1.5081165821714
  0
CIRCLE
  5
171C
330
75
100
AcDbEntity
  8
レイヤ__1
 62
     7
100
AcDbCircle
 10
281.6939944847256
 20
134.7676435340725
 30
0.0
 40
1.2308061843356
  0
CIRCLE
  5
171D
330
75
100
AcDbEntity
  8
レイヤ__1
 62
     7
100
AcDbCircle
 10
275.2863962820857
 20
154.2582518444127
 30
0.0
 40
2.010505553047948
  0
CIRCLE
  5
171E
330
75
100
AcDbEntity
  8
レイヤ__1
 62
     7
100
AcDbCircle
 10
275.2379617571269
 20
140.1818598294606
 30
0.0
 40
2.011455222589678
  0
CIRCLE
  5
171F
330
75
100
AcDbEntity
  8
レイヤ__1
 62
     7
100
AcDbCircle
 10
283.3407669549807
 20
147.1944140701447
 30
0.0
 40
2.00955588350623
  0
CIRCLE
  5
1720
330
75
100
AcDbEntity
  8
レイヤ__1
 62
     7
100
AcDbCircle
 10
267.2424733524797
 20
147.2893837809776
 30
0.0
 40
2.010505553047948
  0
CIRCLE
  5
1721
330
75
100
AcDbEntity
  8
レイヤ__1
 62
     7
100
AcDbCircle
 10
275.2674028912506
 20
147.3131268978516
 30
0.0
 40
2.010505553047948
  0
CIRCLE
  5
1722
330
75
100
AcDbEntity
  8
レイヤ__1
 62
     7
100
AcDbCircle
 10
300.3460211581057
 20
138.2083927668702
 30
0.0
 40
2.262174873257098
  0
CIRCLE
  5
1723
330
75
100
AcDbEntity
  8
レイヤ__1
 62
     7
100
AcDbCircle
 10
272.6225001660357
 20
130.2898275951031
 30
0.0
 40
1.54230606400385
  0
CIRCLE
  5
1724
330
75
100
AcDbEntity
  8
レイヤ__1
 62
     7
100
AcDbCircle
 10
272.6234498355768
 20
122.1575826414564
 30
0.0
 40
0.7721033907087791
  0
CIRCLE
  5
1725
330
75
100
AcDbEntity
  8
レイヤ__1
 62
     7
100
AcDbCircle
 10
277.8011915234237
 20
130.2898289734334
 30
0.0
 40
1.54515507262903
  0
CIRCLE
  5
1726
330
75
100
AcDbEntity
  8
レイヤ__1
 62
     7
100
AcDbCircle
 10
277.8011915234237
 20
122.1575826414564
 30
0.0
 40
0.7740027297922351
  0
CIRCLE
  5
1727
330
75
100
AcDbEntity
  8
レイヤ__1
 62
     7
100
AcDbCircle
 10
308.4782674900828
 20
128.6544511593493
 30
0.0
 40
5.868170741306159
  0
CIRCLE
  5
1728
330
75
100
AcDbEntity
  8
レイヤ__1
 62
     7
100
AcDbCircle
 10
308.4792171596236
 20
128.6544511593493
 30
0.0
 40
4.695295777346208
  0
CIRCLE
  5
1729
330
75
100
AcDbEntity
  8
レイヤ__1
 62
     7
100
AcDbCircle
 10
308.4792171596236
 20
128.6544511593493
 30
0.0
 40
1.407448854087737
  0
CIRCLE
  5
172A
330
75
100
AcDbEntity
  8
レイヤ__1
 62
     7
100
AcDbCircle
 10
308.3130003733877
 20
148.9598966406077
 30
0.0
 40
4.92841598735586
  0
LINE
  5
172B
330
75
100
AcDbEntity
  8
レイヤ__1
 62
     7
100
AcDbLine
 10
315.8051706190597
 20
164.0914031888527
 30
0.0
 11
314.8725703191388
 21
162.4883168958477
 31
0.0
  0
LINE
  5
172C
330
75
100
AcDbEntity
  8
レイヤ__1
 62
     7
100
AcDbLine
 10
314.8725703191388
 20
162.4883168958477
 30
0.0
 11
318.3731487330647
 21
159.2204130329657
 31
0.0
  0
LINE
  5
172D
330
75
100
AcDbEntity
  8
レイヤ__1
 62
     7
100
AcDbLine
 10
257.5418537632427
 20
116.5087910776102
 30
0.0
 11
259.0912336296688
 21
116.9760422754431
 31
0.0
  0
LINE
  5
172E
330
75
100
AcDbEntity
  8
レイヤ__1
 62
     7
100
AcDbLine
 10
299.0012518721016
 20
114.8753139809401
 30
0.0
 11
299.4685030699348
 21
113.4624310629488
 31
0.0
  0
LINE
  5
172F
330
75
100
AcDbEntity
  8
レイヤ__1
 62
     7
100
AcDbLine
 10
263.4793212189137
 20
113.4624310629487
 30
0.0
 11
263.9916635413488
 21
114.8753139809401
 31
0.0
  0
LINE
  5
1730
330
75
100
AcDbEntity
  8
レイヤ__1
 62
     7
100
AcDbLine
 10
280.0966062089717
 20
114.8753139809401
 30
0.0
 11
279.6293563894687
 21
113.4624310629488
 31
0.0
  0
LINE
  5
1731
330
75
100
AcDbEntity
  8
レイヤ__1
 62
     7
100
AcDbLine
 10
260.4910851274228
 20
117.6759680243199
 30
0.0
 11
259.0912336296688
 21
116.9760422754431
 31
0.0
  0
LINE
  5
1732
330
75
100
AcDbEntity
  8
レイヤ__1
 62
     7
100
AcDbLine
 10
315.7683360098308
 20
113.4624310629488
 30
0.0
 11
314.8725703191388
 21
114.8753139809401
 31
0.0
  0
LINE
  5
1733
330
75
100
AcDbEntity
  8
レイヤ__1
 62
     7
100
AcDbLine
 10
320.0066258297346
 20
116.9760422754431
 30
0.0
 11
318.3731487330647
 21
117.6759680243199
 31
0.0
  0
LINE
  5
1734
330
75
100
AcDbEntity
  8
レイヤ__1
 62
     7
100
AcDbLine
 10
320.0066258297346
 20
116.9760422754431
 30
0.0
 11
321.5418537632427
 21
116.6361965559447
 31
0.0
  0
LINE
  5
1735
330
75
100
AcDbEntity
  8
レイヤ__1
 62
     7
100
AcDbLine
 10
263.9916635413488
 20
114.8753139809401
 30
0.0
 11
299.4324142490186
 21
114.8753139809401
 31
0.0
  0
LINE
  5
1736
330
75
100
AcDbEntity
  8
レイヤ__1
 62
     7
100
AcDbLine
 10
280.0966062089717
 20
114.8753139809401
 30
0.0
 11
281.7300833056417
 21
113.4745128136444
 31
0.0
  0
LINE
  5
1737
330
75
100
AcDbEntity
  8
レイヤ__1
 62
     7
100
AcDbLine
 10
297.3677761537617
 20
113.4745128136444
 30
0.0
 11
299.0012518721016
 21
114.8753139809401
 31
0.0
  0
LINE
  5
1738
330
75
100
AcDbEntity
  8
レイヤ__1
 62
     7
100
AcDbLine
 10
298.7676276515156
 20
114.8753139809401
 30
0.0
 11
314.8725703191388
 21
114.8753139809401
 31
0.0
  0
LINE
  5
1739
330
75
100
AcDbEntity
  8
レイヤ__1
 62
     7
100
AcDbLine
 10
314.8725703191388
 20
114.8753139809401
 30
0.0
 11
318.3731487330647
 21
117.6759680243199
 31
0.0
  0
LINE
  5
173A
330
75
100
AcDbEntity
  8
レイヤ__1
 62
     7
100
AcDbLine
 10
260.4910851274228
 20
159.2204130329657
 30
0.0
 11
260.4910851274228
 21
128.6459041334738
 31
0.0
  0
LINE
  5
173B
330
75
100
AcDbEntity
  8
レイヤ__1
 62
     7
100
AcDbLine
 10
259.0912336296688
 20
159.9212884513836
 30
0.0
 11
259.0912336296688
 21
148.4841011443976
 31
0.0
  0
LINE
  5
173C
330
75
100
AcDbEntity
  8
レイヤ__1
 62
     7
100
AcDbLine
 10
320.0066258297346
 20
159.9212884513836
 30
0.0
 11
320.0066258297346
 21
148.4841011443976
 31
0.0
  0
LINE
  5
173D
330
75
100
AcDbEntity
  8
レイヤ__1
 62
     7
100
AcDbLine
 10
257.5418537632427
 20
128.7724187436891
 30
0.0
 11
257.5418537632427
 21
116.5087910776102
 31
0.0
  0
LINE
  5
173E
330
75
100
AcDbEntity
  8
レイヤ__1
 62
     7
100
AcDbLine
 10
260.4910851274228
 20
117.6759680243199
 30
0.0
 11
263.9916635413488
 21
114.8753139809401
 31
0.0
  0
LINE
  5
173F
330
75
100
AcDbEntity
  8
レイヤ__1
 62
     7
100
AcDbLine
 10
281.0292078872226
 20
165.6849927864396
 30
0.0
 11
279.6293563894687
 21
163.9299552317677
 31
0.0
  0
LINE
  5
1740
330
75
100
AcDbEntity
  8
レイヤ__1
 62
     7
100
AcDbLine
 10
299.4769660161417
 20
164.0803473599227
 30
0.0
 11
298.0553548202658
 21
165.6849927864396
 31
0.0
  0
LINE
  5
1741
330
75
100
AcDbEntity
  8
レイヤ__1
 62
     7
100
AcDbLine
 10
281.0292078872226
 20
165.6849927864396
 30
0.0
 11
298.0553548202658
 21
165.6849927864396
 31
0.0
  0
LINE
  5
1742
330
75
100
AcDbEntity
  8
レイヤ__1
 62
     7
100
AcDbLine
 10
281.0292078872226
 20
165.6849927864396
 30
0.0
 11
280.5505606548898
 21
167.8394358124316
 31
0.0
  0
LINE
  5
1743
330
75
100
AcDbEntity
  8
レイヤ__1
 62
     7
100
AcDbLine
 10
298.2585896155167
 20
167.9201591018097
 30
0.0
 11
298.0553548202658
 21
165.6849927864396
 31
0.0
  0
LINE
  5
1744
330
75
100
AcDbEntity
  8
レイヤ__1
 62
     7
100
AcDbLine
 10
299.4685030699348
 20
166.5650026389356
 30
0.0
 11
298.2585896155167
 21
167.9201591018097
 31
0.0
  0
LINE
  5
1745
330
75
100
AcDbEntity
  8
レイヤ__1
 62
     7
100
AcDbLine
 10
280.5525718661055
 20
167.8303831329507
 30
0.0
 11
279.5732555403837
 21
166.5650026389356
 31
0.0
  0
LINE
  5
1746
330
75
100
AcDbEntity
  8
レイヤ__1
 62
     7
100
AcDbLine
 10
317.0188827516437
 20
166.5650026389356
 30
0.0
 11
315.8051706190597
 21
164.0914031888527
 31
0.0
  0
LINE
  5
1747
330
75
100
AcDbEntity
  8
レイヤ__1
 62
     7
100
AcDbLine
 10
279.6293563894687
 20
163.8881683936016
 30
0.0
 11
279.5927753769677
 21
166.5617059387997
 31
0.0
  0
LINE
  5
1748
330
75
100
AcDbEntity
  8
レイヤ__1
 62
     7
100
AcDbLine
 10
299.4685030699348
 20
163.8881683936016
 30
0.0
 11
299.4685030699348
 21
166.5650026389356
 31
0.0
  0
LINE
  5
1749
330
75
100
AcDbEntity
  8
レイヤ__1
 62
     7
100
AcDbLine
 10
299.4685030699348
 20
166.5650026389356
 30
0.0
 11
317.0188827516437
 21
166.5650026389356
 31
0.0
  0
LINE
  5
174A
330
75
100
AcDbEntity
  8
レイヤ__1
 62
     7
100
AcDbLine
 10
263.2907881229296
 20
163.8881683936016
 30
0.0
 11
261.8396530915926
 21
166.5650026389356
 31
0.0
  0
LINE
  5
174B
330
75
100
AcDbEntity
  8
レイヤ__1
 62
     7
100
AcDbLine
 10
261.8396530915926
 20
166.5650026389356
 30
0.0
 11
279.5732555403837
 21
166.5650026389356
 31
0.0
  0
LINE
  5
174C
330
75
100
AcDbEntity
  8
レイヤ__1
 62
     7
100
AcDbLine
 10
315.8051706190597
 20
164.0914031888527
 30
0.0
 11
299.4685030699348
 21
164.0914031888527
 31
0.0
  0
LINE
  5
174D
330
75
100
AcDbEntity
  8
レイヤ__1
 62
     7
100
AcDbLine
 10
279.6293563894687
 20
163.8881683936016
 30
0.0
 11
263.2907881229296
 21
163.8881683936016
 31
0.0
  0
LINE
  5
174E
330
75
100
AcDbEntity
  8
レイヤ__1
 62
     7
100
AcDbLine
 10
321.5418537632427
 20
160.4847970870327
 30
0.0
 11
317.0188827516437
 21
166.5650026389356
 31
0.0
  0
LINE
  5
174F
330
75
100
AcDbEntity
  8
レイヤ__1
 62
     7
100
AcDbLine
 10
261.8396530915926
 20
166.5650026389356
 30
0.0
 11
257.5418537632427
 21
160.5177400952135
 31
0.0
  0
LINE
  5
1750
330
75
100
AcDbEntity
  8
レイヤ__1
 62
     7
100
AcDbLine
 10
257.5418537632427
 20
160.5177400952135
 30
0.0
 11
259.0912336296688
 21
159.9212884513836
 31
0.0
  0
LINE
  5
1751
330
75
100
AcDbEntity
  8
レイヤ__1
 62
     7
100
AcDbLine
 10
259.0912336296688
 20
128.6459041334738
 30
0.0
 11
259.0912336296688
 21
116.9760422754431
 31
0.0
  0
LINE
  5
1752
330
75
100
AcDbEntity
  8
レイヤ__1
 62
     7
100
AcDbLine
 10
260.4910851274228
 20
128.6459041334738
 30
0.0
 11
257.6894827928309
 21
128.6459041334738
 31
0.0
  0
LINE
  5
1753
330
75
100
AcDbEntity
  8
レイヤ__1
 62
     7
100
AcDbLine
 10
260.4910851274228
 20
148.4841011443976
 30
0.0
 11
257.6894827928309
 21
148.4841011443976
 31
0.0
  0
LINE
  5
1754
330
75
100
AcDbEntity
  8
レイヤ__1
 62
     7
100
AcDbLine
 10
299.0012518721016
 20
162.4883168958477
 30
0.0
 11
299.4685030699348
 21
163.8881683936016
 31
0.0
  0
LINE
  5
1755
330
75
100
AcDbEntity
  8
レイヤ__1
 62
     7
100
AcDbLine
 10
263.9916635413488
 20
162.4883168958477
 30
0.0
 11
260.4910851274228
 21
159.2204130329657
 31
0.0
  0
LINE
  5
1756
330
75
100
AcDbEntity
  8
レイヤ__1
 62
     7
100
AcDbLine
 10
263.2907881229296
 20
163.8881683936016
 30
0.0
 11
259.0912336296688
 21
159.9212884513836
 31
0.0
  0
LINE
  5
1757
330
75
100
AcDbEntity
  8
レイヤ__1
 62
     7
100
AcDbLine
 10
263.2907881229296
 20
163.8881683936016
 30
0.0
 11
263.9916635413488
 21
162.4883168958477
 31
0.0
  0
LINE
  5
1758
330
75
100
AcDbEntity
  8
レイヤ__1
 62
     7
100
AcDbLine
 10
280.0966062089717
 20
162.4883168958477
 30
0.0
 11
279.6293563894687
 21
163.8881683936016
 31
0.0
  0
LINE
  5
1759
330
75
100
AcDbEntity
  8
レイヤ__1
 62
     7
100
AcDbLine
 10
297.3677761537617
 20
163.8881683936016
 30
0.0
 11
298.0553548202658
 21
165.6849927864396
 31
0.0
  0
LINE
  5
175A
330
75
100
AcDbEntity
  8
レイヤ__1
 62
     7
100
AcDbLine
 10
281.0292078872226
 20
165.6849927864396
 30
0.0
 11
281.7300833056417
 21
163.8881683936016
 31
0.0
  0
LINE
  5
175B
330
75
100
AcDbEntity
  8
レイヤ__1
 62
     7
100
AcDbLine
 10
260.4910851274228
 20
159.2204130329657
 30
0.0
 11
259.0912336296688
 21
159.9212884513836
 31
0.0
  0
LINE
  5
175C
330
75
100
AcDbEntity
  8
レイヤ__1
 62
     7
100
AcDbLine
 10
320.0066258297346
 20
159.9212884513836
 30
0.0
 11
315.8051706190597
 21
164.0914031888527
 31
0.0
  0
LINE
  5
175D
330
75
100
AcDbEntity
  8
レイヤ__1
 62
     7
100
AcDbLine
 10
320.0066258297346
 20
159.9212884513836
 30
0.0
 11
318.3731487330647
 21
159.2204130329657
 31
0.0
  0
LINE
  5
175E
330
75
100
AcDbEntity
  8
レイヤ__1
 62
     7
100
AcDbLine
 10
259.3248592285847
 20
148.4841011443976
 30
0.0
 11
259.3248592285847
 21
128.6459041334738
 31
0.0
  0
LINE
  5
175F
330
75
100
AcDbEntity
  8
レイヤ__1
 62
     7
100
AcDbLine
 10
257.6894827928309
 20
147.0842496466437
 30
0.0
 11
257.6894827928309
 21
130.0457556312278
 31
0.0
  0
LINE
  5
1760
330
75
100
AcDbEntity
  8
レイヤ__1
 62
     7
100
AcDbLine
 10
319.7730002308187
 20
128.6459041334738
 30
0.0
 11
319.7730002308187
 21
148.4841011443976
 31
0.0
  0
LINE
  5
1761
330
75
100
AcDbEntity
  8
レイヤ__1
 62
     7
100
AcDbLine
 10
321.4064773274887
 20
130.0457556312278
 30
0.0
 11
321.4064773274887
 21
147.0842496466437
 31
0.0
  0
LINE
  5
1762
330
75
100
AcDbEntity
  8
レイヤ__1
 62
     7
100
AcDbLine
 10
256.0560056961607
 20
130.0457556312278
 30
0.0
 11
256.0560056961607
 21
147.0842496466437
 31
0.0
  0
LINE
  5
1763
330
75
100
AcDbEntity
  8
レイヤ__1
 62
     7
100
AcDbLine
 10
323.0418537632427
 20
147.0842496466437
 30
0.0
 11
323.0418537632427
 21
130.0457556312278
 31
0.0
  0
LINE
  5
1764
330
75
100
AcDbEntity
  8
レイヤ__1
 62
     7
100
AcDbLine
 10
259.3248592285847
 20
128.6459041334738
 30
0.0
 11
257.6894827928309
 21
130.0457556312278
 31
0.0
  0
LINE
  5
1765
330
75
100
AcDbEntity
  8
レイヤ__1
 62
     7
100
AcDbLine
 10
257.6894827928309
 20
130.0457556312278
 30
0.0
 11
256.0560056961607
 21
130.0457556312278
 31
0.0
  0
LINE
  5
1766
330
75
100
AcDbEntity
  8
レイヤ__1
 62
     7
100
AcDbLine
 10
257.6894827928309
 20
128.6459041334738
 30
0.0
 11
256.0560056961607
 21
130.0457556312278
 31
0.0
  0
LINE
  5
1767
330
75
100
AcDbEntity
  8
レイヤ__1
 62
     7
100
AcDbLine
 10
257.6894827928309
 20
148.4841011443976
 30
0.0
 11
256.0560056961607
 21
147.0842496466437
 31
0.0
  0
LINE
  5
1768
330
75
100
AcDbEntity
  8
レイヤ__1
 62
     7
100
AcDbLine
 10
256.0560056961607
 20
147.0842496466437
 30
0.0
 11
257.6894827928309
 21
147.0842496466437
 31
0.0
  0
LINE
  5
1769
330
75
100
AcDbEntity
  8
レイヤ__1
 62
     7
100
AcDbLine
 10
257.6894827928309
 20
147.0842496466437
 30
0.0
 11
259.3248592285847
 21
148.4841011443976
 31
0.0
  0
LINE
  5
176A
330
75
100
AcDbEntity
  8
レイヤ__1
 62
     7
100
AcDbLine
 10
319.7730002308187
 20
148.4841011443976
 30
0.0
 11
321.4064773274887
 21
147.0842496466437
 31
0.0
  0
LINE
  5
176B
330
75
100
AcDbEntity
  8
レイヤ__1
 62
     7
100
AcDbLine
 10
321.4064773274887
 20
147.0842496466437
 30
0.0
 11
323.0418537632427
 21
147.0842496466437
 31
0.0
  0
LINE
  5
176C
330
75
100
AcDbEntity
  8
レイヤ__1
 62
     7
100
AcDbLine
 10
321.4064773274887
 20
148.4841011443976
 30
0.0
 11
323.0418537632427
 21
147.0842496466437
 31
0.0
  0
LINE
  5
176D
330
75
100
AcDbEntity
  8
レイヤ__1
 62
     7
100
AcDbLine
 10
321.4064773274887
 20
128.6459041334738
 30
0.0
 11
323.0418537632427
 21
130.0457556312278
 31
0.0
  0
LINE
  5
176E
330
75
100
AcDbEntity
  8
レイヤ__1
 62
     7
100
AcDbLine
 10
323.0418537632427
 20
130.0457556312278
 30
0.0
 11
321.4064773274887
 21
130.0457556312278
 31
0.0
  0
LINE
  5
176F
330
75
100
AcDbEntity
  8
レイヤ__1
 62
     7
100
AcDbLine
 10
321.4064773274887
 20
130.0457556312278
 30
0.0
 11
319.7730002308187
 21
128.6459041334738
 31
0.0
  0
LINE
  5
1770
330
75
100
AcDbEntity
  8
レイヤ__1
 62
     7
100
AcDbLine
 10
320.0066258297346
 20
159.9212884513836
 30
0.0
 11
321.5418537632427
 21
160.4847970870327
 31
0.0
  0
LINE
  5
1771
330
75
100
AcDbEntity
  8
レイヤ__1
 62
     7
100
AcDbLine
 10
321.5418537632427
 20
128.7617838185464
 30
0.0
 11
321.5418537632427
 21
116.6361965559447
 31
0.0
  0
LINE
  5
1772
330
75
100
AcDbEntity
  8
レイヤ__1
 62
     7
100
AcDbLine
 10
321.5418537632427
 20
160.4847970870327
 30
0.0
 11
321.5418537632427
 21
148.3682214593246
 31
0.0
  0
LINE
  5
1773
330
75
100
AcDbEntity
  8
レイヤ__1
 62
     7
100
AcDbLine
 10
320.0066258297346
 20
116.9760422754431
 30
0.0
 11
320.0066258297346
 21
128.6459041334738
 31
0.0
  0
LINE
  5
1774
330
75
100
AcDbEntity
  8
レイヤ__1
 62
     7
100
AcDbLine
 10
319.7730002308187
 20
117.2096664960291
 30
0.0
 11
319.7730002308187
 21
117.2096664960291
 31
0.0
  0
LINE
  5
1775
330
75
100
AcDbEntity
  8
レイヤ__1
 62
     7
100
AcDbLine
 10
321.4064773274887
 20
148.4841011443976
 30
0.0
 11
321.4064773274887
 21
148.4841011443976
 31
0.0
  0
LINE
  5
1776
330
75
100
AcDbEntity
  8
レイヤ__1
 62
     7
100
AcDbLine
 10
321.4064773274887
 20
148.4841011443976
 30
0.0
 11
318.3731487330647
 21
148.4841011443976
 31
0.0
  0
LINE
  5
1777
330
75
100
AcDbEntity
  8
レイヤ__1
 62
     7
100
AcDbLine
 10
318.3731487330647
 20
128.6459041334738
 30
0.0
 11
321.4064773274887
 21
128.6459041334738
 31
0.0
  0
LINE
  5
1778
330
75
100
AcDbEntity
  8
レイヤ__1
 62
     7
100
AcDbLine
 10
321.4064773274887
 20
128.6459041334738
 30
0.0
 11
321.4064773274887
 21
128.6459041334738
 31
0.0
  0
LINE
  5
1779
330
75
100
AcDbEntity
  8
レイヤ__1
 62
     7
100
AcDbLine
 10
318.3731487330647
 20
128.6459041334738
 30
0.0
 11
318.3731487330647
 21
117.6759680243199
 31
0.0
  0
LINE
  5
177A
330
75
100
AcDbEntity
  8
レイヤ__1
 62
     7
100
AcDbLine
 10
260.4910851274228
 20
117.6759680243199
 30
0.0
 11
260.4910851274228
 21
128.6459041334738
 31
0.0
  0
LINE
  5
177B
330
75
100
AcDbEntity
  8
レイヤ__1
 62
     7
100
AcDbLine
 10
280.0966062089717
 20
162.4883168958477
 30
0.0
 11
281.7300833056417
 21
163.8881683936016
 31
0.0
  0
LINE
  5
177C
330
75
100
AcDbEntity
  8
レイヤ__1
 62
     7
100
AcDbLine
 10
281.7300833056417
 20
163.8881683936016
 30
0.0
 11
297.3677761537617
 21
163.8881683936016
 31
0.0
  0
LINE
  5
177D
330
75
100
AcDbEntity
  8
レイヤ__1
 62
     7
100
AcDbLine
 10
297.3677761537617
 20
163.8881683936016
 30
0.0
 11
299.0012518721016
 21
162.4883168958477
 31
0.0
  0
LINE
  5
177E
330
75
100
AcDbEntity
  8
レイヤ__1
 62
     7
100
AcDbLine
 10
263.9916635413488
 20
162.4883168958477
 30
0.0
 11
314.8725703191388
 21
162.4883168958477
 31
0.0
  0
LINE
  5
177F
330
75
100
AcDbEntity
  8
レイヤ__1
 62
     7
100
AcDbLine
 10
318.3731487330647
 20
159.2204130329657
 30
0.0
 11
318.3731487330647
 21
128.6459041334738
 31
0.0
  0
LINE
  5
1780
330
75
100
AcDbEntity
  8
レイヤ__1
 62
     7
100
AcDbLine
 10
257.5418537632427
 20
148.3575865341816
 30
0.0
 11
257.5418537632427
 21
160.5177400952135
 31
0.0
  0
LINE
  5
1781
330
75
100
AcDbEntity
  8
レイヤ__1
 62
     7
100
AcDbLine
 10
321.4064773274887
 20
128.6459041334738
 30
0.0
 11
321.4064773274887
 21
128.6459041334738
 31
0.0
  0
LINE
  5
1782
330
75
100
AcDbEntity
  8
レイヤ__1
 62
     7
100
AcDbLine
 10
321.4064773274887
 20
128.6459041334738
 30
0.0
 11
321.4064773274887
 21
128.6459041334738
 31
0.0
  0
LINE
  5
1783
330
75
100
AcDbEntity
  8
レイヤ__1
 62
     7
100
AcDbLine
 10
321.4064773274887
 20
128.6459041334738
 30
0.0
 11
323.0418537632427
 21
130.0457556312278
 31
0.0
  0
LINE
  5
1784
330
75
100
AcDbEntity
  8
レイヤ__1
 62
     7
100
AcDbLine
 10
323.0418537632427
 20
130.0457556312278
 30
0.0
 11
323.0418537632427
 21
130.0457556312278
 31
0.0
  0
LINE
  5
1785
330
75
100
AcDbEntity
  8
AM_5
100
AcDbLine
 10
93.46185133422627
 20
116.3596681559119
 30
0.0
 11
93.46185133422627
 21
84.24228336966841
 31
0.0
  0
LINE
  5
1786
330
75
100
AcDbEntity
  8
AM_5
100
AcDbLine
 10
220.5043001042897
 20
112.2013977957842
 30
0.0
 11
220.5043001042897
 21
84.24228336966841
 31
0.0
  0
LINE
  5
1787
330
75
100
AcDbEntity
  8
AM_5
100
AcDbLine
 10
95.96185133422627
 20
85.24228336966841
 30
0.0
 11
218.0043001042896
 21
85.24228336966841
 31
0.0
  0
SOLID
  5
1788
330
75
100
AcDbEntity
  8
0
 62
     7
100
AcDbTrace
 10
93.46185133422627
 20
85.24228336966841
 30
0.0
 11
95.96185133422627
 21
84.82561670300176
 31
0.0
 12
95.96185133422627
 22
85.65895003633512
 32
0.0
 13
95.96185133422627
 23
85.65895003633512
 33
0.0
  0
SOLID
  5
1789
330
75
100
AcDbEntity
  8
0
 62
     7
100
AcDbTrace
 10
218.0043001042896
 20
85.65895003633512
 30
0.0
 11
218.0043001042896
 21
84.82561670300176
 31
0.0
 12
220.5043001042897
 22
85.24228336966841
 32
0.0
 13
220.5043001042897
 23
85.24228336966841
 33
0.0
  0
TEXT
  5
178A
330
75
100
AcDbEntity
  8
AM_5
 62
     2
100
AcDbText
 10
154.7979002600116
 20
86.24228336966849
 30
0.0
 40
3.0
  1
127
  7
FONT_0
 72
     1
 11
158.2979002600116
 21
87.74228336966848
 31
0.0
100
AcDbText
 73
     2
  0
LINE
  5
178B
330
75
100
AcDbEntity
  8
AM_5
100
AcDbLine
 10
127.515744842885
 20
168.5204647477837
 30
0.0
 11
79.44197228077577
 21
168.5204647477837
 31
0.0
  0
LINE
  5
178C
330
75
100
AcDbEntity
  8
AM_5
100
AcDbLine
 10
127.5157454749136
 20
108.5790365190977
 30
0.0
 11
79.44197228077577
 21
108.5790365190977
 31
0.0
  0
LINE
  5
178D
330
75
100
AcDbEntity
  8
AM_5
100
AcDbLine
 10
80.44197228077576
 20
166.0204647477837
 30
0.0
 11
80.44197228077576
 21
111.0790365190976
 31
0.0
  0
SOLID
  5
178E
330
75
100
AcDbEntity
  8
0
 62
     7
100
AcDbTrace
 10
80.02530561410912
 20
166.0204647477837
 30
0.0
 11
80.85863894744239
 21
166.0204647477837
 31
0.0
 12
80.44197228077576
 22
168.5204647477837
 32
0.0
 13
80.44197228077576
 23
168.5204647477837
 33
0.0
  0
SOLID
  5
178F
330
75
100
AcDbEntity
  8
0
 62
     7
100
AcDbTrace
 10
80.44197228077576
 20
108.5790365190977
 30
0.0
 11
80.85863894744239
 21
111.0790365190976
 31
0.0
 12
80.02530561410912
 22
111.0790365190976
 32
0.0
 13
80.02530561410912
 23
111.0790365190976
 33
0.0
  0
TEXT
  5
1790
330
75
100
AcDbEntity
  8
AM_5
 62
     2
100
AcDbText
 10
79.4419722807757
 20
136.2997506334409
 30
0.0
 40
3.0
  1
60
 50
90.0
  7
FONT_0
 72
     1
 11
77.9419722807757
 21
138.5497506334409
 31
0.0
100
AcDbText
 73
     2
  0
LINE
  5
1791
330
75
100
AcDbEntity
  8
AM_5
100
AcDbLine
 10
323.0418537632427
 20
148.0842496466437
 30
0.0
 11
323.0418537632427
 21
185.9470866019515
 31
0.0
  0
LINE
  5
1792
330
75
100
AcDbEntity
  8
AM_5
100
AcDbLine
 10
256.0418537632427
 20
148.0842496466437
 30
0.0
 11
256.0418537632427
 21
185.9470866019515
 31
0.0
  0
LINE
  5
1793
330
75
100
AcDbEntity
  8
AM_5
100
AcDbLine
 10
320.5418537632428
 20
184.9470866019516
 30
0.0
 11
258.5418537632427
 21
184.9470866019516
 31
0.0
  0
SOLID
  5
1794
330
75
100
AcDbEntity
  8
0
 62
     7
100
AcDbTrace
 10
320.5418537632428
 20
185.3637532686187
 30
0.0
 11
320.5418537632428
 21
184.5304199352847
 31
0.0
 12
323.0418537632427
 22
184.9470866019516
 32
0.0
 13
323.0418537632427
 23
184.9470866019516
 33
0.0
  0
SOLID
  5
1795
330
75
100
AcDbEntity
  8
0
 62
     7
100
AcDbTrace
 10
256.0418537632427
 20
184.9470866019516
 30
0.0
 11
258.5418537632427
 21
184.5304199352847
 31
0.0
 12
258.5418537632427
 22
185.3637532686187
 32
0.0
 13
258.5418537632427
 23
185.3637532686187
 33
0.0
  0
TEXT
  5
1796
330
75
100
AcDbEntity
  8
AM_5
 62
     2
100
AcDbText
 10
287.0418537632427
 20
185.9470866019516
 30
0.0
 40
3.0
  1
67
  7
FONT_0
 72
     1
 11
289.5418537632427
 21
187.4470866019516
 31
0.0
100
AcDbText
 73
     2
  0
LINE
  5
1797
330
75
100
AcDbEntity
  8
レイヤ__1
 62
     7
100
AcDbLine
 10
309.7436870953288
 20
110.5650026389357
 30
0.0
 11
307.6168937841207
 21
108.8850495444795
 31
0.0
  0
LINE
  5
1798
330
75
100
AcDbEntity
  8
レイヤ__1
 62
     7
100
AcDbLine
 10
271.5453833068966
 20
109.1368980442256
 30
0.0
 11
269.7715136369436
 21
110.5650026389357
 31
0.0
  0
LINE
  5
1799
330
75
100
AcDbEntity
  8
レイヤ__1
 62
     7
100
AcDbLine
 10
279.5732555403837
 20
110.5650026389357
 30
0.0
 11
271.5453833068966
 21
109.1368980442256
 31
0.0
  0
LINE
  5
179A
330
75
100
AcDbEntity
  8
レイヤ__1
 62
     7
100
AcDbLine
 10
307.6168937841207
 20
108.8850495444795
 30
0.0
 11
299.4685030699348
 21
110.5650026389357
 31
0.0
  0
LINE
  5
179B
330
75
100
AcDbEntity
  8
レイヤ__1
 62
     7
100
AcDbLine
 10
281.0861894380566
 20
107.0266432233211
 30
0.0
 11
281.0861894380566
 21
104.9596161571879
 31
0.0
  0
LINE
  5
179C
330
75
100
AcDbEntity
  8
レイヤ__1
 62
     7
100
AcDbLine
 10
278.9854625218847
 20
107.0266432233211
 30
0.0
 11
278.9854625218847
 21
104.9596161571879
 31
0.0
  0
LINE
  5
179D
330
75
100
AcDbEntity
  8
レイヤ__1
 62
     7
100
AcDbLine
 10
278.4854625218847
 20
104.4596161571879
 30
0.0
 11
277.8531000977737
 21
104.4568624773728
 31
0.0
  0
LINE
  5
179E
330
75
100
AcDbEntity
  8
レイヤ__1
 62
     7
100
AcDbLine
 10
282.0187911163088
 20
104.4596161571879
 30
0.0
 11
281.5861894380566
 21
104.4596161571879
 31
0.0
  0
LINE
  5
179F
330
75
100
AcDbEntity
  8
レイヤ__1
 62
     7
100
AcDbLine
 10
277.8199732741367
 20
104.026618525578
 30
0.0
 11
278.0509615045496
 21
107.0266432233211
 31
0.0
  0
LINE
  5
17A0
330
75
100
AcDbEntity
  8
レイヤ__1
 62
     7
100
AcDbLine
 10
278.0509615045496
 20
107.0266432233211
 30
0.0
 11
282.0187911163088
 21
107.0266432233211
 31
0.0
  0
LINE
  5
17A1
330
75
100
AcDbEntity
  8
レイヤ__1
 62
     7
100
AcDbLine
 10
282.0187911163088
 20
107.0266432233211
 30
0.0
 11
282.0187911163088
 21
104.0650026389357
 31
0.0
  0
LINE
  5
17A2
330
75
100
AcDbEntity
  8
レイヤ__1
 62
     7
100
AcDbLine
 10
298.8208105241827
 20
104.9995022779405
 30
0.0
 11
298.8208105241827
 21
107.0665307224039
 31
0.0
  0
LINE
  5
17A3
330
75
100
AcDbEntity
  8
レイヤ__1
 62
     7
100
AcDbLine
 10
300.9215374403557
 20
104.9995022779405
 30
0.0
 11
300.9215374403557
 21
107.0665307224039
 31
0.0
  0
LINE
  5
17A4
330
75
100
AcDbEntity
  8
レイヤ__1
 62
     7
100
AcDbLine
 10
302.0517874446297
 20
104.4995022779405
 30
0.0
 11
301.4215374403557
 21
104.4995022779405
 31
0.0
  0
LINE
  5
17A5
330
75
100
AcDbEntity
  8
レイヤ__1
 62
     7
100
AcDbLine
 10
298.3208105241827
 20
104.4995022779405
 30
0.0
 11
297.8863095068478
 21
104.4995022779405
 31
0.0
  0
LINE
  5
17A6
330
75
100
AcDbEntity
  8
レイヤ__1
 62
     7
100
AcDbLine
 10
306.0555929509527
 20
108.5650026389357
 30
0.0
 11
298.2585896155167
 21
109.2098461760622
 31
0.0
  0
LINE
  5
17A7
330
75
100
AcDbEntity
  8
レイヤ__1
 62
     7
100
AcDbLine
 10
280.5505606548898
 20
109.2905694654394
 30
0.0
 11
273.8476083331207
 21
108.5650026389357
 31
0.0
  0
LINE
  5
17A8
330
75
100
AcDbEntity
  8
レイヤ__1
 62
     7
100
AcDbLine
 10
307.6168937841207
 20
108.8850495444795
 30
0.0
 11
306.0555929509527
 21
108.5650026389357
 31
0.0
  0
LINE
  5
17A9
330
75
100
AcDbEntity
  8
レイヤ__1
 62
     7
100
AcDbLine
 10
273.8476083331207
 20
108.5650026389357
 30
0.0
 11
271.5453833068966
 21
109.1368980442256
 31
0.0
  0
LINE
  5
17AA
330
75
100
AcDbEntity
  8
レイヤ__1
 62
     7
100
AcDbLine
 10
306.3895429579027
 20
108.6334581627274
 30
0.0
 11
305.5610715842977
 21
104.3740756639754
 31
0.0
  0
LINE
  5
17AB
330
75
100
AcDbEntity
  8
レイヤ__1
 62
     7
100
AcDbLine
 10
274.3357710751377
 20
104.3752094928858
 30
0.0
 11
273.5096264719828
 21
108.6489606670409
 31
0.0
  0
LINE
  5
17AC
330
75
100
AcDbEntity
  8
レイヤ__1
 62
     7
100
AcDbLine
 10
297.8863095068478
 20
104.0650026389357
 30
0.0
 11
297.8863095068478
 21
107.0665307224039
 31
0.0
  0
LINE
  5
17AD
330
75
100
AcDbEntity
  8
レイヤ__1
 62
     7
100
AcDbLine
 10
297.8863095068478
 20
107.0665307224039
 30
0.0
 11
301.8541391186068
 21
107.0665307224039
 31
0.0
  0
LINE
  5
17AE
330
75
100
AcDbEntity
  8
レイヤ__1
 62
     7
100
AcDbLine
 10
301.8541391186068
 20
107.0665307224039
 30
0.0
 11
302.0881971064566
 21
104.0266187506996
 31
0.0
  0
LINE
  5
17AF
330
75
100
AcDbEntity
  8
レイヤ__1
 62
     7
100
AcDbLine
 10
306.0555929509527
 20
108.5650026389357
 30
0.0
 11
273.8476083331207
 21
108.5650026389357
 31
0.0
  0
LINE
  5
17B0
330
75
100
AcDbEntity
  8
レイヤ__1
 62
     7
100
AcDbLine
 10
297.3863095068477
 20
103.5650026389357
 30
0.0
 11
282.5187911163088
 21
103.5650026389357
 31
0.0
  0
LINE
  5
17B1
330
75
100
AcDbEntity
  8
レイヤ__1
 62
     7
100
AcDbLine
 10
281.0292078872226
 20
111.4450124914317
 30
0.0
 11
279.6293563894687
 21
113.4624310629488
 31
0.0
  0
LINE
  5
17B2
330
75
100
AcDbEntity
  8
レイヤ__1
 62
     7
100
AcDbLine
 10
299.4685030699348
 20
113.4624310629488
 30
0.0
 11
298.0553548202658
 21
111.4450124914317
 31
0.0
  0
LINE
  5
17B3
330
75
100
AcDbEntity
  8
レイヤ__1
 62
     7
100
AcDbLine
 10
281.0292078872226
 20
111.4450124914317
 30
0.0
 11
298.0553548202658
 21
111.4450124914317
 31
0.0
  0
LINE
  5
17B4
330
75
100
AcDbEntity
  8
レイヤ__1
 62
     7
100
AcDbLine
 10
281.0292078872226
 20
111.4450124914317
 30
0.0
 11
280.5505606548898
 21
109.2905694654394
 31
0.0
  0
LINE
  5
17B5
330
75
100
AcDbEntity
  8
レイヤ__1
 62
     7
100
AcDbLine
 10
298.2585896155167
 20
109.2098461760622
 30
0.0
 11
298.0553548202658
 21
111.4450124914317
 31
0.0
  0
LINE
  5
17B6
330
75
100
AcDbEntity
  8
レイヤ__1
 62
     7
100
AcDbLine
 10
299.4685030699348
 20
110.5650026389357
 30
0.0
 11
298.2585896155167
 21
109.2098461760622
 31
0.0
  0
LINE
  5
17B7
330
75
100
AcDbEntity
  8
レイヤ__1
 62
     7
100
AcDbLine
 10
280.5525718661055
 20
109.2996221449209
 30
0.0
 11
279.5732555403837
 21
110.5650026389357
 31
0.0
  0
LINE
  5
17B8
330
75
100
AcDbEntity
  8
レイヤ__1
 62
     7
100
AcDbLine
 10
317.0188827516437
 20
110.5650026389357
 30
0.0
 11
315.7683360098308
 21
113.4624310629488
 31
0.0
  0
LINE
  5
17B9
330
75
100
AcDbEntity
  8
レイヤ__1
 62
     7
100
AcDbLine
 10
279.6293563894687
 20
113.4624310629488
 30
0.0
 11
279.5732555403837
 21
110.5650026389357
 31
0.0
  0
LINE
  5
17BA
330
75
100
AcDbEntity
  8
レイヤ__1
 62
     7
100
AcDbLine
 10
299.4685030699348
 20
113.4624310629488
 30
0.0
 11
299.4685030699348
 21
110.5650026389357
 31
0.0
  0
LINE
  5
17BB
330
75
100
AcDbEntity
  8
レイヤ__1
 62
     7
100
AcDbLine
 10
299.4685030699348
 20
110.5650026389357
 30
0.0
 11
317.0188827516437
 21
110.5650026389357
 31
0.0
  0
LINE
  5
17BC
330
75
100
AcDbEntity
  8
レイヤ__1
 62
     7
100
AcDbLine
 10
263.4793212189137
 20
113.4624310629487
 30
0.0
 11
261.8396530915926
 21
110.5650026389357
 31
0.0
  0
LINE
  5
17BD
330
75
100
AcDbEntity
  8
レイヤ__1
 62
     7
100
AcDbLine
 10
261.8396530915926
 20
110.5650026389357
 30
0.0
 11
279.5732555403837
 21
110.5650026389357
 31
0.0
  0
LINE
  5
17BE
330
75
100
AcDbEntity
  8
レイヤ__1
 62
     7
100
AcDbLine
 10
321.5418537632427
 20
116.645208190839
 30
0.0
 11
317.0188827516437
 21
110.5650026389357
 31
0.0
  0
LINE
  5
17BF
330
75
100
AcDbEntity
  8
レイヤ__1
 62
     7
100
AcDbLine
 10
261.8396530915926
 20
110.5650026389357
 30
0.0
 11
257.5418537632427
 21
116.5087910776102
 31
0.0
  0
LINE
  5
17C0
330
75
100
AcDbEntity
  8
レイヤ__1
 62
     7
100
AcDbLine
 10
297.3677761537617
 20
113.4745128136444
 30
0.0
 11
298.0553548202658
 21
111.4450124914317
 31
0.0
  0
LINE
  5
17C1
330
75
100
AcDbEntity
  8
レイヤ__1
 62
     7
100
AcDbLine
 10
281.0292078872226
 20
111.4450124914317
 30
0.0
 11
281.7300833056417
 21
113.4745128136444
 31
0.0
  0
LINE
  5
17C2
330
75
100
AcDbEntity
  8
レイヤ__1
 62
     7
100
AcDbLine
 10
263.4793212189137
 20
113.4624310629487
 30
0.0
 11
259.0912336296688
 21
116.9760422754431
 31
0.0
  0
LINE
  5
17C3
330
75
100
AcDbEntity
  8
レイヤ__1
 62
     7
100
AcDbLine
 10
320.0066258297346
 20
116.9760422754431
 30
0.0
 11
315.7683360098308
 21
113.4624310629488
 31
0.0
  0
LINE
  5
17C4
330
75
100
AcDbEntity
  8
レイヤ__1
 62
     7
100
AcDbLine
 10
263.4793212189137
 20
113.4624310629487
 30
0.0
 11
279.6292043143797
 21
113.4624310629488
 31
0.0
  0
LINE
  5
17C5
330
75
100
AcDbEntity
  8
AM_5
100
AcDbLine
 10
302.8541391186068
 20
173.5650026389357
 30
0.0
 11
340.4535020545687
 21
173.5650026389357
 31
0.0
  0
LINE
  5
17C6
330
75
100
AcDbEntity
  8
AM_5
100
AcDbLine
 10
305.7146227618797
 20
103.5650026389357
 30
0.0
 11
340.4535020545687
 21
103.5650026389357
 31
0.0
  0
LINE
  5
17C7
330
75
100
AcDbEntity
  8
AM_5
100
AcDbLine
 10
339.4535020545687
 20
171.0650026389357
 30
0.0
 11
339.4535020545687
 21
106.0650026389357
 31
0.0
  0
SOLID
  5
17C8
330
75
100
AcDbEntity
  8
0
 62
     7
100
AcDbTrace
 10
339.0368353879027
 20
171.0650026389357
 30
0.0
 11
339.8701687212356
 21
171.0650026389357
 31
0.0
 12
339.4535020545687
 22
173.5650026389357
 32
0.0
 13
339.4535020545687
 23
173.5650026389357
 33
0.0
  0
SOLID
  5
17C9
330
75
100
AcDbEntity
  8
0
 62
     7
100
AcDbTrace
 10
339.4535020545687
 20
103.5650026389357
 30
0.0
 11
339.8701687212356
 21
106.0650026389357
 31
0.0
 12
339.0368353879027
 22
106.0650026389357
 32
0.0
 13
339.0368353879027
 23
106.0650026389357
 33
0.0
  0
TEXT
  5
17CA
330
75
100
AcDbEntity
  8
AM_5
 62
     2
100
AcDbText
 10
338.4535020545687
 20
136.3150026389358
 30
0.0
 40
3.0
  1
70
 50
90.0
  7
FONT_0
 72
     1
 11
336.9535020545687
 21
138.5650026389358
 31
0.0
100
AcDbText
 73
     2
  0
LINE
  5
17CB
330
75
100
AcDbEntity
  8
AM_5
100
AcDbLine
 10
307.0555929509517
 20
168.5650026389357
 30
0.0
 11
332.3142233461357
 21
168.5650026389357
 31
0.0
  0
LINE
  5
17CC
330
75
100
AcDbEntity
  8
AM_5
100
AcDbLine
 10
307.0555929509517
 20
108.5650026389357
 30
0.0
 11
332.3142233461357
 21
108.5650026389357
 31
0.0
  0
LINE
  5
17CD
330
75
100
AcDbEntity
  8
AM_5
100
AcDbLine
 10
331.3142233461357
 20
166.0650026389357
 30
0.0
 11
331.3142233461357
 21
111.0650026389357
 31
0.0
  0
SOLID
  5
17CE
330
75
100
AcDbEntity
  8
0
 62
     7
100
AcDbTrace
 10
330.8975566794686
 20
166.0650026389357
 30
0.0
 11
331.7308900128026
 21
166.0650026389357
 31
0.0
 12
331.3142233461357
 22
168.5650026389357
 32
0.0
 13
331.3142233461357
 23
168.5650026389357
 33
0.0
  0
SOLID
  5
17CF
330
75
100
AcDbEntity
  8
0
 62
     7
100
AcDbTrace
 10
331.3142233461357
 20
108.5650026389357
 30
0.0
 11
331.7308900128026
 21
111.0650026389357
 31
0.0
 12
330.8975566794686
 22
111.0650026389357
 32
0.0
 13
330.8975566794686
 23
111.0650026389357
 33
0.0
  0
TEXT
  5
17D0
330
75
100
AcDbEntity
  8
AM_5
 62
     2
100
AcDbText
 10
330.3142233461357
 20
136.3150026389358
 30
0.0
 40
3.0
  1
60
 50
90.0
  7
FONT_0
 72
     1
 11
328.8142233461357
 21
138.5650026389358
 31
0.0
100
AcDbText
 73
     2
  0
LINE
  5
17D1
330
75
100
AcDbEntity
  8
レイヤ__1
 62
     7
100
AcDbLine
 10
221.9149581813267
 20
143.3000212890962
 30
0.0
 11
221.9149581813267
 21
154.2516294428406
 31
0.0
  0
LINE
  5
17D2
330
75
100
AcDbEntity
  8
レイヤ__1
 62
     7
100
AcDbLine
 10
221.9149581813267
 20
154.2516294428406
 30
0.0
 11
220.5041739724068
 21
154.2516294428406
 31
0.0
  0
LINE
  5
17D3
330
75
100
AcDbEntity
  8
レイヤ__1
 62
     7
100
AcDbLine
 10
221.9149581813267
 20
143.3000212890962
 30
0.0
 11
220.5041739724068
 21
143.3000212890962
 31
0.0
  0
LINE
  5
17D4
330
75
100
AcDbEntity
  8
レイヤ__1
 62
     7
100
AcDbLine
 10
226.4507237847586
 20
124.5418270988649
 30
0.0
 11
227.5043001042897
 21
124.5418270988649
 31
0.0
  0
LINE
  5
17D5
330
75
100
AcDbEntity
  8
レイヤ__1
 62
     7
100
AcDbLine
 10
226.4507237847586
 20
124.5418270988649
 30
0.0
 11
226.4507237847586
 21
119.1174901907479
 31
0.0
  0
LINE
  5
17D6
330
75
100
AcDbEntity
  8
レイヤ__1
 62
     7
100
AcDbLine
 10
232.5043001042896
 20
122.5648857320075
 30
0.0
 11
232.5043001042896
 21
134.3012272146197
 31
0.0
  0
LINE
  5
17D7
330
75
100
AcDbEntity
  8
レイヤ__1
 62
     7
100
AcDbLine
 10
226.5043001042897
 20
122.5648857320075
 30
0.0
 11
232.5043001042896
 21
122.5648857320075
 31
0.0
  0
ARC
  5
17D8
330
75
100
AcDbEntity
  8
レイヤ__1
 62
     7
100
AcDbCircle
 10
98.83699190791668
 20
120.9852311880906
 30
0.0
 40
0.146740731194075
100
AcDbArc
 50
204.5710867620125
 51
335.4289132379854
  0
LINE
  5
17D9
330
75
100
AcDbEntity
  8
レイヤ__1
 62
     7
100
AcDbLine
 10
136.9270668403089
 20
126.0030333984862
 30
0.0
 11
136.2532682520541
 21
126.0030333984862
 31
0.0
  0
LINE
  5
17DA
330
75
100
AcDbEntity
  8
レイヤ__1
 62
     7
100
AcDbLine
 10
136.2532682520541
 20
126.0030333984862
 30
0.0
 11
136.2532682520541
 21
127.4432324637716
 31
0.0
  0
LINE
  5
17DB
330
75
100
AcDbEntity
  8
レイヤ__1
 62
     7
100
AcDbLine
 10
136.2532682520541
 20
127.4432324637716
 30
0.0
 11
136.8922067384833
 21
127.4432324637716
 31
0.0
  0
LINE
  5
17DC
330
75
100
AcDbEntity
  8
レイヤ__1
 62
     7
100
AcDbLine
 10
138.1809759120615
 20
123.1204596737522
 30
0.0
 11
138.1809759120615
 21
125.2524312767461
 31
0.0
  0
LINE
  5
17DD
330
75
100
AcDbEntity
  8
レイヤ__1
 62
     7
100
AcDbLine
 10
138.1809759120615
 20
125.2524312767461
 30
0.0
 11
140.3140384743379
 21
125.2524312767461
 31
0.0
  0
LINE
  5
17DE
330
75
100
AcDbEntity
  8
レイヤ__1
 62
     7
100
AcDbLine
 10
140.3140384743379
 20
125.2524312767461
 30
0.0
 11
140.3140384743379
 21
123.1204596737522
 31
0.0
  0
LINE
  5
17DF
330
75
100
AcDbEntity
  8
レイヤ__1
 62
     7
100
AcDbLine
 10
140.3140384743379
 20
123.1204596737522
 30
0.0
 11
138.1809759120615
 21
123.1204596737522
 31
0.0
  0
LINE
  5
17E0
330
75
100
AcDbEntity
  8
レイヤ__1
 62
     7
100
AcDbLine
 10
138.1809759120615
 20
127.9301971599527
 30
0.0
 11
138.1809759120615
 21
130.0610809658651
 31
0.0
  0
LINE
  5
17E1
330
75
100
AcDbEntity
  8
レイヤ__1
 62
     7
100
AcDbLine
 10
138.1809759120615
 20
130.0610809658651
 30
0.0
 11
140.3140384743379
 21
130.0610809658651
 31
0.0
  0
LINE
  5
17E2
330
75
100
AcDbEntity
  8
レイヤ__1
 62
     7
100
AcDbLine
 10
140.3140384743379
 20
130.0610809658651
 30
0.0
 11
140.3140384743379
 21
127.9301971599527
 31
0.0
  0
LINE
  5
17E3
330
75
100
AcDbEntity
  8
レイヤ__1
 62
     7
100
AcDbLine
 10
140.3140384743379
 20
127.9301971599527
 30
0.0
 11
138.1809759120615
 21
127.9301971599527
 31
0.0
  0
LINE
  5
17E4
330
75
100
AcDbEntity
  8
レイヤ__1
 62
     7
100
AcDbLine
 10
141.6038970260981
 20
123.1204596737522
 30
0.0
 11
141.6038970260981
 21
125.2524312767461
 31
0.0
  0
LINE
  5
17E5
330
75
100
AcDbEntity
  8
レイヤ__1
 62
     7
100
AcDbLine
 10
141.6038970260981
 20
125.2524312767461
 30
0.0
 11
143.7347792509099
 21
125.2524312767461
 31
0.0
  0
LINE
  5
17E6
330
75
100
AcDbEntity
  8
レイヤ__1
 62
     7
100
AcDbLine
 10
143.7347792509099
 20
125.2524312767461
 30
0.0
 11
143.7347792509099
 21
123.1204596737522
 31
0.0
  0
LINE
  5
17E7
330
75
100
AcDbEntity
  8
レイヤ__1
 62
     7
100
AcDbLine
 10
143.7347792509099
 20
123.1204596737522
 30
0.0
 11
141.6038970260981
 21
123.1204596737522
 31
0.0
  0
LINE
  5
17E8
330
75
100
AcDbEntity
  8
レイヤ__1
 62
     7
100
AcDbLine
 10
141.6038970260981
 20
127.9301971599527
 30
0.0
 11
141.6038970260981
 21
130.0610809658651
 31
0.0
  0
LINE
  5
17E9
330
75
100
AcDbEntity
  8
レイヤ__1
 62
     7
100
AcDbLine
 10
141.6038970260981
 20
130.0610809658651
 30
0.0
 11
143.7347792509099
 21
130.0610809658651
 31
0.0
  0
LINE
  5
17EA
330
75
100
AcDbEntity
  8
レイヤ__1
 62
     7
100
AcDbLine
 10
143.7347792509099
 20
130.0610809658651
 30
0.0
 11
143.7347792509099
 21
127.9301971599527
 31
0.0
  0
LINE
  5
17EB
330
75
100
AcDbEntity
  8
レイヤ__1
 62
     7
100
AcDbLine
 10
143.7347792509099
 20
127.9301971599527
 30
0.0
 11
141.6038970260981
 21
127.9301971599527
 31
0.0
  0
LINE
  5
17EC
330
75
100
AcDbEntity
  8
レイヤ__1
 62
     7
100
AcDbLine
 10
136.8464512737365
 20
127.449768732864
 30
0.0
 11
136.8464512737365
 21
130.3290743230519
 31
0.0
  0
LINE
  5
17ED
330
75
100
AcDbEntity
  8
レイヤ__1
 62
     7
100
AcDbLine
 10
136.8464512737365
 20
130.3290743230519
 30
0.0
 11
137.8781208719487
 21
131.6091300522741
 31
0.0
  0
LINE
  5
17EE
330
75
100
AcDbEntity
  8
レイヤ__1
 62
     7
100
AcDbLine
 10
137.8781208719487
 20
131.6091300522741
 30
0.0
 11
144.0114892146536
 21
131.6091300522741
 31
0.0
  0
LINE
  5
17EF
330
75
100
AcDbEntity
  8
レイヤ__1
 62
     7
100
AcDbLine
 10
144.0114892146536
 20
131.6091300522741
 30
0.0
 11
144.9756157844779
 21
130.334521213962
 31
0.0
  0
LINE
  5
17F0
330
75
100
AcDbEntity
  8
レイヤ__1
 62
     7
100
AcDbLine
 10
144.9756157844779
 20
130.334521213962
 30
0.0
 11
144.9756157844779
 21
122.3034039018062
 31
0.0
  0
LINE
  5
17F1
330
75
100
AcDbEntity
  8
レイヤ__1
 62
     7
100
AcDbLine
 10
144.9756157844779
 20
122.3034039018062
 30
0.0
 11
144.0082210801075
 21
121.199832181378
 31
0.0
  0
LINE
  5
17F2
330
75
100
AcDbEntity
  8
レイヤ__1
 62
     7
100
AcDbLine
 10
144.0082210801075
 20
121.199832181378
 30
0.0
 11
137.8781208719487
 21
121.199832181378
 31
0.0
  0
LINE
  5
17F3
330
75
100
AcDbEntity
  8
レイヤ__1
 62
     7
100
AcDbLine
 10
137.8781208719487
 20
121.199832181378
 30
0.0
 11
136.8464512737365
 21
122.3034039018062
 31
0.0
  0
LINE
  5
17F4
330
75
100
AcDbEntity
  8
レイヤ__1
 62
     7
100
AcDbLine
 10
136.8464512737365
 20
122.3034039018062
 30
0.0
 11
136.8464512737365
 21
126.0204650304995
 31
0.0
  0
LINE
  5
17F5
330
75
100
AcDbEntity
  8
レイヤ__1
 62
     7
100
AcDbLine
 10
144.0245633339386
 20
132.9109733451375
 30
0.0
 11
145.9920340881413
 21
130.7169040235656
 31
0.0
  0
LINE
  5
17F6
330
75
100
AcDbEntity
  8
レイヤ__1
 62
     7
100
AcDbLine
 10
145.9920340881413
 20
130.7169040235656
 30
0.0
 11
145.9920340881413
 21
122.1018626137247
 31
0.0
  0
LINE
  5
17F7
330
75
100
AcDbEntity
  8
レイヤ__1
 62
     7
100
AcDbLine
 10
145.9920340881413
 20
122.1018626137247
 30
0.0
 11
144.018025483746
 21
119.8990782666967
 31
0.0
  0
LINE
  5
17F8
330
75
100
AcDbEntity
  8
レイヤ__1
 62
     7
100
AcDbLine
 10
144.018025483746
 20
119.8990782666967
 30
0.0
 11
137.800771858822
 21
119.8990782666967
 31
0.0
  0
LINE
  5
17F9
330
75
100
AcDbEntity
  8
レイヤ__1
 62
     7
100
AcDbLine
 10
137.800771858822
 20
119.8990782666967
 30
0.0
 11
135.8289435918913
 21
122.1018626137247
 31
0.0
  0
LINE
  5
17FA
330
75
100
AcDbEntity
  8
レイヤ__1
 62
     7
100
AcDbLine
 10
135.8289435918913
 20
122.1018626137247
 30
0.0
 11
135.8289435918913
 21
130.7125465108375
 31
0.0
  0
LINE
  5
17FB
330
75
100
AcDbEntity
  8
レイヤ__1
 62
     7
100
AcDbLine
 10
135.8289435918913
 20
130.7125465108375
 30
0.0
 11
137.800771858822
 21
132.9109733451375
 31
0.0
  0
LINE
  5
17FC
330
75
100
AcDbEntity
  8
レイヤ__1
 62
     7
100
AcDbLine
 10
137.800771858822
 20
132.9109733451375
 30
0.0
 11
144.0245633339386
 21
132.9109733451375
 31
0.0
  0
LINE
  5
17FD
330
75
100
AcDbEntity
  8
レイヤ__1
 62
     7
100
AcDbLine
 10
144.8023999102302
 20
134.539637998119
 30
0.0
 11
147.2644625889885
 21
131.7965078428885
 31
0.0
  0
LINE
  5
17FE
330
75
100
AcDbEntity
  8
レイヤ__1
 62
     7
100
AcDbLine
 10
147.2644625889885
 20
131.7965078428885
 30
0.0
 11
147.2644625889885
 21
121.0255269289481
 31
0.0
  0
LINE
  5
17FF
330
75
100
AcDbEntity
  8
レイヤ__1
 62
     7
100
AcDbLine
 10
147.2644625889885
 20
121.0255269289481
 30
0.0
 11
144.7958636411379
 21
118.2736817482615
 31
0.0
  0
LINE
  5
1800
330
75
100
AcDbEntity
  8
レイヤ__1
 62
     7
100
AcDbLine
 10
144.7958636411379
 20
118.2736817482615
 30
0.0
 11
137.0229352825304
 21
118.2736817482615
 31
0.0
  0
LINE
  5
1801
330
75
100
AcDbEntity
  8
レイヤ__1
 62
     7
100
AcDbLine
 10
137.0229352825304
 20
118.2736817482615
 30
0.0
 11
134.5597832255898
 21
121.0255269289481
 31
0.0
  0
LINE
  5
1802
330
75
100
AcDbEntity
  8
レイヤ__1
 62
     7
100
AcDbLine
 10
134.5597832255898
 20
121.0255269289481
 30
0.0
 11
134.5597832255898
 21
131.7867034392501
 31
0.0
  0
LINE
  5
1803
330
75
100
AcDbEntity
  8
レイヤ__1
 62
     7
100
AcDbLine
 10
134.5597832255898
 20
131.7867034392501
 30
0.0
 11
137.0229352825304
 21
134.539637998119
 31
0.0
  0
LINE
  5
1804
330
75
100
AcDbEntity
  8
レイヤ__1
 62
     7
100
AcDbLine
 10
137.0229352825304
 20
134.539637998119
 30
0.0
 11
144.8023999102302
 21
134.539637998119
 31
0.0
  0
LINE
  5
1805
330
75
100
AcDbEntity
  8
レイヤ__1
 62
     7
100
AcDbLine
 10
116.0191405064879
 20
147.2966106764566
 30
0.0
 11
123.4788639417027
 21
147.2966106764566
 31
0.0
  0
LINE
  5
1806
330
75
100
AcDbEntity
  8
レイヤ__1
 62
     7
100
AcDbLine
 10
123.4788639417027
 20
147.2966106764566
 30
0.0
 11
126.6740986912886
 21
144.1002865486892
 31
0.0
  0
LINE
  5
1807
330
75
100
AcDbEntity
  8
レイヤ__1
 62
     7
100
AcDbLine
 10
126.6740986912886
 20
144.1002865486892
 30
0.0
 11
126.6740986912886
 21
133.1778773241421
 31
0.0
  0
LINE
  5
1808
330
75
100
AcDbEntity
  8
レイヤ__1
 62
     7
100
AcDbLine
 10
126.6740986912886
 20
133.1778773241421
 30
0.0
 11
123.4788639417027
 21
129.9815531963743
 31
0.0
  0
LINE
  5
1809
330
75
100
AcDbEntity
  8
レイヤ__1
 62
     7
100
AcDbLine
 10
123.4788639417027
 20
129.9815531963743
 30
0.0
 11
116.0191405064879
 21
129.9815531963743
 31
0.0
  0
LINE
  5
180A
330
75
100
AcDbEntity
  8
レイヤ__1
 62
     7
100
AcDbLine
 10
124.0121295822717
 20
148.6289565584177
 30
0.0
 11
128.0075355325319
 21
144.6330067096167
 31
0.0
  0
LINE
  5
180B
330
75
100
AcDbEntity
  8
レイヤ__1
 62
     7
100
AcDbLine
 10
128.0075355325319
 20
144.6330067096167
 30
0.0
 11
128.0075355325319
 21
132.6451571632145
 31
0.0
  0
LINE
  5
180C
330
75
100
AcDbEntity
  8
レイヤ__1
 62
     7
100
AcDbLine
 10
128.0075355325319
 20
132.6451571632145
 30
0.0
 11
124.0121295822717
 21
128.6492073144134
 31
0.0
  0
LINE
  5
180D
330
75
100
AcDbEntity
  8
レイヤ__1
 62
     7
100
AcDbLine
 10
98.70353912786431
 20
161.4153424476717
 30
0.0
 11
100.834966832317
 21
163.8131302325887
 31
0.0
  0
LINE
  5
180E
330
75
100
AcDbEntity
  8
レイヤ__1
 62
     7
100
AcDbLine
 10
100.834966832317
 20
163.8131302325887
 30
0.0
 11
101.3682324728863
 21
165.6771084783957
 31
0.0
  0
LINE
  5
180F
330
75
100
AcDbEntity
  8
レイヤ__1
 62
     7
100
AcDbLine
 10
101.3682324728863
 20
165.6771084783957
 30
0.0
 11
99.2368047684333
 21
163.8131302325887
 31
0.0
  0
LINE
  5
1810
330
75
100
AcDbEntity
  8
レイヤ__1
 62
     7
100
AcDbLine
 10
99.2368047684333
 20
163.8131302325887
 30
0.0
 11
98.70353912786431
 21
161.4153424476717
 31
0.0
  0
LINE
  5
1811
330
75
100
AcDbEntity
  8
レイヤ__1
 62
     7
100
AcDbLine
 10
102.4325849976603
 20
162.4807843506276
 30
0.0
 11
100.834966832317
 21
161.4153424476717
 31
0.0
  0
LINE
  5
1812
330
75
100
AcDbEntity
  8
レイヤ__1
 62
     7
100
AcDbLine
 10
100.834966832317
 20
161.4153424476717
 30
0.0
 11
100.834966832317
 21
162.7476883296327
 31
0.0
  0
LINE
  5
1813
330
75
100
AcDbEntity
  8
レイヤ__1
 62
     7
100
AcDbLine
 10
100.834966832317
 20
161.4153424476717
 30
0.0
 11
101.3682324728863
 21
159.0175546627547
 31
0.0
  0
LINE
  5
1814
330
75
100
AcDbEntity
  8
レイヤ__1
 62
     7
100
AcDbLine
 10
101.3682324728863
 20
159.0175546627547
 30
0.0
 11
101.3682324728863
 21
148.6289565584177
 31
0.0
  0
LINE
  5
1815
330
75
100
AcDbEntity
  8
レイヤ__1
 62
     7
100
AcDbLine
 10
103.1537843427067
 20
112.7913616895794
 30
0.0
 11
100.8349668323173
 21
114.5304739620985
 31
0.0
  0
LINE
  5
1816
330
75
100
AcDbEntity
  8
レイヤ__1
 62
     7
100
AcDbLine
 10
98.68300436964432
 20
115.6916794464974
 30
0.0
 11
100.834966832317
 21
113.1981280801376
 31
0.0
  0
LINE
  5
1817
330
75
100
AcDbEntity
  8
レイヤ__1
 62
     7
100
AcDbLine
 10
100.834966832317
 20
113.1981280801376
 30
0.0
 11
101.4310337536575
 21
112.0072119088197
 31
0.0
  0
LINE
  5
1818
330
75
100
AcDbEntity
  8
レイヤ__1
 62
     7
100
AcDbLine
 10
103.1810083630364
 20
128.4596491863345
 30
0.0
 11
103.1810083630364
 21
116.8084269847886
 31
0.0
  0
LINE
  5
1819
330
75
100
AcDbEntity
  8
レイヤ__1
 62
     7
100
AcDbLine
 10
103.1810083630364
 20
116.8084269847886
 30
0.0
 11
102.4325849976603
 21
114.7973795222036
 31
0.0
  0
LINE
  5
181A
330
75
100
AcDbEntity
  8
レイヤ__1
 62
     7
100
AcDbLine
 10
102.4325849976603
 20
114.7973795222036
 30
0.0
 11
103.3618014261192
 21
112.754871384579
 31
0.0
  0
LINE
  5
181B
330
75
100
AcDbEntity
  8
レイヤ__1
 62
     7
100
AcDbLine
 10
210.6353496226957
 20
110.85263361016
 30
0.0
 11
208.5218974487978
 21
110.85263361016
 31
0.0
  0
LINE
  5
181C
330
75
100
AcDbEntity
  8
レイヤ__1
 62
     7
100
AcDbLine
 10
208.5218974487978
 20
110.85263361016
 30
0.0
 11
208.5218974487978
 21
128.474903643084
 31
0.0
  0
LINE
  5
181D
330
75
100
AcDbEntity
  8
レイヤ__1
 62
     7
100
AcDbLine
 10
202.7020872010766
 20
148.6812498733577
 30
0.0
 11
198.4176333743776
 21
144.4521667691956
 31
0.0
  0
LINE
  5
181E
330
75
100
AcDbEntity
  8
レイヤ__1
 62
     7
100
AcDbLine
 10
198.4176333743776
 20
144.4521667691956
 30
0.0
 11
198.4176333743776
 21
132.4686747355208
 31
0.0
  0
LINE
  5
181F
330
75
100
AcDbEntity
  8
レイヤ__1
 62
     7
100
AcDbLine
 10
198.4176333743776
 20
132.4686747355208
 30
0.0
 11
202.6472619581816
 21
128.474903643084
 31
0.0
  0
LINE
  5
1820
330
75
100
AcDbEntity
  8
レイヤ__1
 62
     7
100
AcDbLine
 10
210.6353496226957
 20
112.4965495576903
 30
0.0
 11
210.6353496226957
 21
112.4965495576903
 31
0.0
  0
LINE
  5
1821
330
75
100
AcDbEntity
  8
レイヤ__1
 62
     7
100
AcDbLine
 10
210.6353496226957
 20
112.4965495576903
 30
0.0
 11
219.0946052092026
 21
113.2013977957842
 31
0.0
  0
LINE
  5
1822
330
75
100
AcDbEntity
  8
レイヤ__1
 62
     7
100
AcDbLine
 10
210.6353496226957
 20
160.6636525288496
 30
0.0
 11
219.0946052092026
 21
160.1941178835817
 31
0.0
  0
LINE
  5
1823
330
75
100
AcDbEntity
  8
レイヤ__1
 62
     7
100
AcDbLine
 10
219.0946052092026
 20
160.1941178835817
 30
0.0
 11
219.0946052092026
 21
160.1941178835817
 31
0.0
  0
LINE
  5
1824
330
75
100
AcDbEntity
  8
レイヤ__1
 62
     7
100
AcDbLine
 10
219.0946052092026
 20
165.5986716681877
 30
0.0
 11
219.0946052092026
 21
148.6812498733577
 31
0.0
  0
LINE
  5
1825
330
75
100
AcDbEntity
  8
レイヤ__1
 62
     7
100
AcDbLine
 10
203.5183558086726
 20
147.0362429665446
 30
0.0
 11
219.0946052092026
 21
147.0362429665446
 31
0.0
  0
LINE
  5
1826
330
75
100
AcDbEntity
  8
レイヤ__1
 62
     7
100
AcDbLine
 10
219.0946052092026
 20
147.0362429665446
 30
0.0
 11
220.5043001042897
 21
148.6812498733577
 31
0.0
  0
LINE
  5
1827
330
75
100
AcDbEntity
  8
レイヤ__1
 62
     7
100
AcDbLine
 10
220.5043001042897
 20
128.474903643084
 30
0.0
 11
219.0946052092026
 21
130.1188195906142
 31
0.0
  0
LINE
  5
1828
330
75
100
AcDbEntity
  8
レイヤ__1
 62
     7
100
AcDbLine
 10
219.0946052092026
 20
130.1188195906142
 30
0.0
 11
203.1173420830906
 21
130.1188195906144
 31
0.0
  0
LINE
  5
1829
330
75
100
AcDbEntity
  8
レイヤ__1
 62
     7
100
AcDbLine
 10
203.1173420830906
 20
130.1188195906142
 30
0.0
 11
200.0620963826496
 21
133.1735213925145
 31
0.0
  0
LINE
  5
182A
330
75
100
AcDbEntity
  8
レイヤ__1
 62
     7
100
AcDbLine
 10
200.0620963826496
 20
133.1735213925145
 30
0.0
 11
200.0620963826496
 21
143.9815411646446
 31
0.0
  0
LINE
  5
182B
330
75
100
AcDbEntity
  8
レイヤ__1
 62
     7
100
AcDbLine
 10
200.0620963826496
 20
143.9815411646446
 30
0.0
 11
203.5183558086726
 21
147.0362429665446
 31
0.0
  0
LINE
  5
182C
330
75
100
AcDbEntity
  8
レイヤ__1
 62
     7
100
AcDbLine
 10
116.0191405064879
 20
164.3469397716987
 30
0.0
 11
116.0191405064879
 21
161.6822480077767
 31
0.0
  0
LINE
  5
182D
330
75
100
AcDbEntity
  8
レイヤ__1
 62
     7
100
AcDbLine
 10
102.965849057129
 20
160.3499005447156
 30
0.0
 11
102.4325834165599
 21
162.4807827695277
 31
0.0
  0
LINE
  5
182E
330
75
100
AcDbEntity
  8
レイヤ__1
 62
     7
100
AcDbLine
 10
102.4325834165599
 20
162.4807827695277
 30
0.0
 11
103.3286313111025
 21
164.4253478778147
 31
0.0
  0
LINE
  5
182F
330
75
100
AcDbEntity
  8
レイヤ__1
 62
     7
100
AcDbLine
 10
101.3682324728863
 20
148.6289565584177
 30
0.0
 11
101.6345925533503
 21
147.2966106764566
 31
0.0
  0
LINE
  5
1830
330
75
100
AcDbEntity
  8
レイヤ__1
 62
     7
100
AcDbLine
 10
101.6345925533503
 20
147.2966106764566
 30
0.0
 11
101.6345925533503
 21
129.9815531963743
 31
0.0
  0
LINE
  5
1831
330
75
100
AcDbEntity
  8
レイヤ__1
 62
     7
100
AcDbLine
 10
101.6345925533503
 20
129.9815531963743
 30
0.0
 11
101.3682324728863
 21
128.6492073144134
 31
0.0
  0
LINE
  5
1832
330
75
100
AcDbEntity
  8
レイヤ__1
 62
     7
100
AcDbLine
 10
99.50371032853848
 20
128.6492073144134
 30
0.0
 11
97.90391340683122
 21
129.9815531963743
 31
0.0
  0
LINE
  5
1833
330
75
100
AcDbEntity
  8
レイヤ__1
 62
     7
100
AcDbLine
 10
97.90391340683122
 20
129.9815531963743
 30
0.0
 11
97.90391340683122
 21
138.5061746360043
 31
0.0
  0
LINE
  5
1834
330
75
100
AcDbEntity
  8
レイヤ__1
 62
     7
100
AcDbLine
 10
97.90391340683122
 20
138.5061746360043
 30
0.0
 11
97.90391340683122
 21
148.6289565584177
 31
0.0
  0
LINE
  5
1835
330
75
100
AcDbEntity
  8
レイヤ__1
 62
     7
100
AcDbLine
 10
116.0191405064879
 20
168.0748962633127
 30
0.0
 11
101.3682324728863
 21
165.6771084783957
 31
0.0
  0
LINE
  5
1836
330
75
100
AcDbEntity
  8
レイヤ__1
 62
     7
100
AcDbLine
 10
101.3682324728863
 20
165.6771084783957
 30
0.0
 11
116.0191405064879
 21
168.0748962633127
 31
0.0
  0
LINE
  5
1837
330
75
100
AcDbEntity
  8
レイヤ__1
 62
     7
100
AcDbLine
 10
98.97044468796929
 20
124.7549912210798
 30
0.0
 11
98.97044468796929
 21
120.9242131769168
 31
0.0
  0
LINE
  5
1838
330
75
100
AcDbEntity
  8
レイヤ__1
 62
     7
100
AcDbLine
 10
98.70353912786407
 20
120.9242131769168
 30
0.0
 11
97.90391340683122
 21
123.5889049408385
 31
0.0
  0
LINE
  5
1839
330
75
100
AcDbEntity
  8
レイヤ__1
 62
     7
100
AcDbLine
 10
102.4325849976603
 20
114.7973795222036
 30
0.0
 11
100.8349668323173
 21
115.5959158650546
 31
0.0
  0
LINE
  5
183A
330
75
100
AcDbEntity
  8
レイヤ__1
 62
     7
100
AcDbLine
 10
100.8349668323173
 20
115.5959158650546
 30
0.0
 11
100.8349668323173
 21
114.5304739620985
 31
0.0
  0
LINE
  5
183B
330
75
100
AcDbEntity
  8
レイヤ__1
 62
     7
100
AcDbLine
 10
97.90391340683122
 20
126.6892690447729
 30
0.0
 11
97.90391340683122
 21
128.3823017543084
 31
0.0
  0
LINE
  5
183C
330
75
100
AcDbEntity
  8
レイヤ__1
 62
     7
100
AcDbLine
 10
97.90391340683122
 20
128.3823017543084
 30
0.0
 11
97.90391340683122
 21
129.9815531963743
 31
0.0
  0
CIRCLE
  5
183D
330
75
100
AcDbEntity
  8
レイヤ__1
 62
     7
100
AcDbCircle
 10
308.3120698069587
 20
148.9598993681056
 30
0.0
 40
1.24979957517015
  0
CIRCLE
  5
183E
330
75
100
AcDbEntity
  8
レイヤ__1
 62
     7
100
AcDbCircle
 10
308.3132206737925
 20
148.9599259778465
 30
0.0
 40
4.079601626765088
  0
LINE
  5
183F
330
75
100
AcDbEntity
  8
レイヤ__1
 62
     7
100
AcDbLine
 10
304.7697045548657
 20
126.6145044721776
 30
0.0
 11
304.7697045548657
 21
130.7409330323961
 31
0.0
  0
LINE
  5
1840
330
75
100
AcDbEntity
  8
レイヤ__1
 62
     7
100
AcDbLine
 10
312.1906291034656
 20
130.7409330323961
 30
0.0
 11
312.1906291034656
 21
130.7409327170755
 31
0.0
  0
LINE
  5
1841
330
75
100
AcDbEntity
  8
レイヤ__1
 62
     7
100
AcDbLine
 10
280.0890088526377
 20
125.4986124373817
 30
0.0
 11
275.5133741942097
 21
125.4986124373817
 31
0.0
  0
LINE
  5
1842
330
75
100
AcDbEntity
  8
レイヤ__1
 62
     7
100
AcDbLine
 10
275.5133741942097
 20
125.4986124373817
 30
0.0
 11
275.5133741942097
 21
126.2697661585489
 31
0.0
  0
LINE
  5
1843
330
75
100
AcDbEntity
  8
レイヤ__1
 62
     7
100
AcDbLine
 10
275.5133741942097
 20
126.2697661585489
 30
0.0
 11
280.0890088526377
 21
126.2697661585489
 31
0.0
  0
LINE
  5
1844
330
75
100
AcDbEntity
  8
レイヤ__1
 62
     7
100
AcDbLine
 10
280.0890088526377
 20
126.2697661585489
 30
0.0
 11
280.0890088526377
 21
125.4986124373817
 31
0.0
  0
LINE
  5
1845
330
75
100
AcDbEntity
  8
レイヤ__1
 62
     7
100
AcDbLine
 10
280.0890088526377
 20
126.8139419675917
 30
0.0
 11
275.5133741942097
 21
126.8139419675917
 31
0.0
  0
LINE
  5
1846
330
75
100
AcDbEntity
  8
レイヤ__1
 62
     7
100
AcDbLine
 10
275.5133741942097
 20
126.8139419675917
 30
0.0
 11
275.5133741942097
 21
127.586993649512
 31
0.0
  0
LINE
  5
1847
330
75
100
AcDbEntity
  8
レイヤ__1
 62
     7
100
AcDbLine
 10
275.5133741942097
 20
127.586993649512
 30
0.0
 11
280.0890088526377
 21
127.586993649512
 31
0.0
  0
LINE
  5
1848
330
75
100
AcDbEntity
  8
レイヤ__1
 62
     7
100
AcDbLine
 10
280.0890088526377
 20
127.586993649512
 30
0.0
 11
280.0890088526377
 21
126.8139419675917
 31
0.0
  0
LINE
  5
1849
330
75
100
AcDbEntity
  8
レイヤ__1
 62
     7
100
AcDbLine
 10
280.0890088526377
 20
124.8537689002554
 30
0.0
 11
275.5133741942097
 21
124.8537689002554
 31
0.0
  0
LINE
  5
184A
330
75
100
AcDbEntity
  8
レイヤ__1
 62
     7
100
AcDbLine
 10
275.5133741942097
 20
124.8537689002554
 30
0.0
 11
275.5133741942097
 21
128.1169244154289
 31
0.0
  0
LINE
  5
184B
330
75
100
AcDbEntity
  8
レイヤ__1
 62
     7
100
AcDbLine
 10
275.5133741942097
 20
128.1169244154289
 30
0.0
 11
280.0890088526377
 21
128.1169244154289
 31
0.0
  0
LINE
  5
184C
330
75
100
AcDbEntity
  8
レイヤ__1
 62
     7
100
AcDbLine
 10
280.0890088526377
 20
128.1169244154289
 30
0.0
 11
280.0890088526377
 21
124.8537689002554
 31
0.0
  0
LINE
  5
184D
330
75
100
AcDbEntity
  8
レイヤ__1
 62
     7
100
AcDbLine
 10
274.9112671647906
 20
125.4986124373817
 30
0.0
 11
270.3356325063627
 21
125.4986124373817
 31
0.0
  0
LINE
  5
184E
330
75
100
AcDbEntity
  8
レイヤ__1
 62
     7
100
AcDbLine
 10
270.3356325063627
 20
125.4986124373817
 30
0.0
 11
270.3356325063627
 21
126.2697647802186
 31
0.0
  0
LINE
  5
184F
330
75
100
AcDbEntity
  8
レイヤ__1
 62
     7
100
AcDbLine
 10
270.3356325063627
 20
126.2697647802186
 30
0.0
 11
274.9112671647906
 21
126.2697647802186
 31
0.0
  0
LINE
  5
1850
330
75
100
AcDbEntity
  8
レイヤ__1
 62
     7
100
AcDbLine
 10
274.9112671647906
 20
126.2697647802186
 30
0.0
 11
274.9112671647906
 21
125.4986124373817
 31
0.0
  0
LINE
  5
1851
330
75
100
AcDbEntity
  8
レイヤ__1
 62
     7
100
AcDbLine
 10
274.9112671647906
 20
126.8139405892614
 30
0.0
 11
270.3356325063627
 21
126.8139405892614
 31
0.0
  0
LINE
  5
1852
330
75
100
AcDbEntity
  8
レイヤ__1
 62
     7
100
AcDbLine
 10
270.3356325063627
 20
126.8139405892614
 30
0.0
 11
270.3356325063627
 21
127.5869936495118
 31
0.0
  0
LINE
  5
1853
330
75
100
AcDbEntity
  8
レイヤ__1
 62
     7
100
AcDbLine
 10
270.3356325063627
 20
127.5869936495118
 30
0.0
 11
274.9112671647906
 21
127.5869936495118
 31
0.0
  0
LINE
  5
1854
330
75
100
AcDbEntity
  8
レイヤ__1
 62
     7
100
AcDbLine
 10
274.9112671647906
 20
127.5869936495118
 30
0.0
 11
274.9112671647906
 21
126.8139405892614
 31
0.0
  0
LINE
  5
1855
330
75
100
AcDbEntity
  8
レイヤ__1
 62
     7
100
AcDbLine
 10
274.9112671647906
 20
124.8537689002554
 30
0.0
 11
270.3356325063627
 21
124.8537689002554
 31
0.0
  0
LINE
  5
1856
330
75
100
AcDbEntity
  8
レイヤ__1
 62
     7
100
AcDbLine
 10
270.3356325063627
 20
124.8537689002554
 30
0.0
 11
270.3356325063627
 21
128.1169244154289
 31
0.0
  0
LINE
  5
1857
330
75
100
AcDbEntity
  8
レイヤ__1
 62
     7
100
AcDbLine
 10
270.3356325063627
 20
128.1169244154289
 30
0.0
 11
274.9112671647906
 21
128.1169244154289
 31
0.0
  0
LINE
  5
1858
330
75
100
AcDbEntity
  8
レイヤ__1
 62
     7
100
AcDbLine
 10
274.9112671647906
 20
128.1169244154289
 30
0.0
 11
274.9112671647906
 21
124.8537689002554
 31
0.0
  0
LINE
  5
1859
330
75
100
AcDbEntity
  8
レイヤ__1
 62
     7
100
AcDbLine
 10
269.7753109367807
 20
119.3388848767837
 30
0.0
 11
280.6721224912217
 21
119.3388848767837
 31
0.0
  0
LINE
  5
185A
330
75
100
AcDbEntity
  8
レイヤ__1
 62
     7
100
AcDbLine
 10
280.6721224912217
 20
119.3388848767837
 30
0.0
 11
280.6721224912217
 21
132.9632217849006
 31
0.0
  0
LINE
  5
185B
330
75
100
AcDbEntity
  8
レイヤ__1
 62
     7
100
AcDbLine
 10
280.6721224912217
 20
132.9632217849006
 30
0.0
 11
269.7753109367807
 21
132.9632217849006
 31
0.0
  0
LINE
  5
185C
330
75
100
AcDbEntity
  8
レイヤ__1
 62
     7
100
AcDbLine
 10
269.7753109367807
 20
132.9632217849006
 30
0.0
 11
269.7753109367807
 21
119.3388848767837
 31
0.0
  0
LINE
  5
185D
330
75
100
AcDbEntity
  8
レイヤ__1
 62
     7
100
AcDbLine
 10
277.9066075992157
 20
132.9632217849006
 30
0.0
 11
277.9066075992157
 21
134.6926182619459
 31
0.0
  0
LINE
  5
185E
330
75
100
AcDbEntity
  8
レイヤ__1
 62
     7
100
AcDbLine
 10
277.9066075992157
 20
134.6926182619459
 30
0.0
 11
279.4603096977207
 21
134.6926182619459
 31
0.0
  0
LINE
  5
185F
330
75
100
AcDbEntity
  8
レイヤ__1
 62
     7
100
AcDbLine
 10
272.7649547322857
 20
132.9632217849006
 30
0.0
 11
272.7649547322857
 21
134.6926182619459
 31
0.0
  0
LINE
  5
1860
330
75
100
AcDbEntity
  8
レイヤ__1
 62
     7
100
AcDbLine
 10
272.7649547322857
 20
134.6926182619459
 30
0.0
 11
271.5398465651997
 21
134.6926182619459
 31
0.0
  0
LINE
  5
1861
330
75
100
AcDbEntity
  8
レイヤ__1
 62
     7
100
AcDbLine
 10
219.0946052092026
 20
165.5986716681877
 30
0.0
 11
219.0946052092026
 21
165.5986716681877
 31
0.0
  0
LINE
  5
1862
330
75
100
AcDbEntity
  8
レイヤ__1
 62
     7
100
AcDbLine
 10
219.0946052092026
 20
165.5986716681877
 30
0.0
 11
220.5043001042897
 21
163.9536663424747
 31
0.0
  0
LINE
  5
1863
330
75
100
AcDbEntity
  8
レイヤ__1
 62
     7
100
AcDbLine
 10
280.9209428028056
 20
134.8227271241532
 30
0.0
 11
282.4670475449767
 21
134.8227271241532
 31
0.0
  0
LINE
  5
1864
330
75
100
AcDbEntity
  8
レイヤ__1
 62
     7
100
AcDbLine
 10
282.4670475449767
 20
134.8227271241532
 30
0.0
 11
282.4670475449767
 21
134.6650764669055
 31
0.0
  0
LINE
  5
1865
330
75
100
AcDbEntity
  8
レイヤ__1
 62
     7
100
AcDbLine
 10
282.4670475449767
 20
134.6650764669055
 30
0.0
 11
280.9209428028056
 21
134.6650764669055
 31
0.0
  0
LINE
  5
1866
330
75
100
AcDbEntity
  8
レイヤ__1
 62
     7
100
AcDbLine
 10
280.9209428028056
 20
134.6650764669055
 30
0.0
 11
280.9209428028056
 21
134.8227271241532
 31
0.0
  0
LINE
  5
1867
330
75
100
AcDbEntity
  8
レイヤ__1
 62
     7
100
AcDbLine
 10
168.4995300374116
 20
168.3852683828517
 30
0.0
 11
164.8159114646877
 21
173.2144841832456
 31
0.0
  0
ARC
  5
1868
330
75
100
AcDbEntity
  8
レイヤ__1
 62
     7
100
AcDbCircle
 10
164.0208144895136
 20
172.6080018668767
 30
0.0
 40
1.0
100
AcDbArc
 50
37.33558384621409
 51
90.0
  0
LINE
  5
1869
330
75
100
AcDbEntity
  8
レイヤ__1
 62
     7
100
AcDbLine
 10
132.2155025451806
 20
173.2326970126165
 30
0.0
 11
128.515744842885
 21
168.5204647477837
 31
0.0
  0
LINE
  5
186A
330
75
100
AcDbEntity
  8
レイヤ__1
 62
     7
100
AcDbLine
 10
164.0208144895136
 20
173.6080018668767
 30
0.0
 11
132.9963712760745
 21
173.6080018668767
 31
0.0
  0
ARC
  5
186B
330
75
100
AcDbEntity
  8
レイヤ__1
 62
     7
100
AcDbCircle
 10
132.9963712760745
 20
172.6080018668767
 30
0.0
 40
1.0
100
AcDbArc
 50
90.0
 51
141.3401845415437
  0
LINE
  5
186C
330
75
100
AcDbEntity
  8
レイヤ__1
 62
     7
100
AcDbLine
 10
168.6064539373797
 20
168.2446046201647
 30
0.0
 11
165.1157067205597
 21
172.8209664996147
 31
0.0
  0
LINE
  5
186D
330
75
100
AcDbEntity
  8
レイヤ__1
 62
     7
100
AcDbLine
 10
168.4995300374116
 20
108.7447368950195
 30
0.0
 11
164.8159114646877
 21
103.9155210946259
 31
0.0
  0
ARC
  5
186E
330
75
100
AcDbEntity
  8
レイヤ__1
 62
     7
100
AcDbCircle
 10
164.0208144895136
 20
104.5220034109949
 30
0.0
 40
1.0
100
AcDbArc
 50
270.0
 51
322.664416153786
  0
LINE
  5
186F
330
75
100
AcDbEntity
  8
レイヤ__1
 62
     7
100
AcDbLine
 10
132.2155025451806
 20
103.8973082652541
 30
0.0
 11
128.515744842885
 21
108.6095405300875
 31
0.0
  0
LINE
  5
1870
330
75
100
AcDbEntity
  8
レイヤ__1
 62
     7
100
AcDbLine
 10
164.0208144895136
 20
103.5220034109949
 30
0.0
 11
132.9963712760745
 21
103.5220034109949
 31
0.0
  0
ARC
  5
1871
330
75
100
AcDbEntity
  8
レイヤ__1
 62
     7
100
AcDbCircle
 10
132.9963712760745
 20
104.5220034109949
 30
0.0
 40
1.0
100
AcDbArc
 50
218.6598154584562
 51
270.0
  0
LINE
  5
1872
330
75
100
AcDbEntity
  8
レイヤ__1
 62
     7
100
AcDbLine
 10
168.6064539373797
 20
108.8854006577064
 30
0.0
 11
165.1157067205597
 21
104.3090387782565
 31
0.0
  0
LINE
  5
1873
330
75
100
AcDbEntity
  8
レイヤ__1
 62
     7
100
AcDbLine
 10
100.8349652512169
 20
162.7476867485317
 30
0.0
 11
101.3457713881452
 21
164.1179334556927
 31
0.0
  0
CIRCLE
  5
1874
330
75
100
AcDbEntity
  8
レイヤ__1
 62
     7
100
AcDbCircle
 10
97.54832068428379
 20
125.2320271926181
 30
0.0
 40
1.5
  0
LINE
  5
1875
330
75
100
AcDbEntity
  8
レイヤ__1
 62
     7
100
AcDbLine
 10
299.4685030699348
 20
113.4624310629488
 30
0.0
 11
315.7683360098308
 21
113.4624310629488
 31
0.0
  0
LINE
  5
1876
330
75
100
AcDbEntity
  8
レイヤ__1
 62
     7
100
AcDbLine
 10
264.9506509724947
 20
160.5650026389357
 30
0.0
 11
314.9845368636737
 21
160.5650026389357
 31
0.0
  0
ARC
  5
1877
330
75
100
AcDbEntity
  8
レイヤ__1
 62
     7
100
AcDbCircle
 10
315.0080135607277
 20
158.6216803993627
 30
0.0
 40
1.943464041891219
100
AcDbArc
 50
358.3288309496222
 51
90.69213957393715
  0
LINE
  5
1878
330
75
100
AcDbEntity
  8
レイヤ__1
 62
     7
100
AcDbLine
 10
316.9506509724947
 20
158.5650026389357
 30
0.0
 11
316.9506509724947
 21
118.5650026389357
 31
0.0
  0
ARC
  5
1879
330
75
100
AcDbEntity
  8
レイヤ__1
 62
     7
100
AcDbCircle
 10
315.0080135607277
 20
118.5083248785089
 30
0.0
 40
1.943464041891239
100
AcDbArc
 50
269.3078604260628
 51
1.671169050376979
  0
LINE
  5
187A
330
75
100
AcDbEntity
  8
レイヤ__1
 62
     7
100
AcDbLine
 10
314.9845368636737
 20
116.5650026389357
 30
0.0
 11
264.9506509724947
 21
116.5650026389357
 31
0.0
  0
ARC
  5
187B
330
75
100
AcDbEntity
  8
レイヤ__1
 62
     7
100
AcDbCircle
 10
264.9506509724947
 20
118.5650026389357
 30
0.0
 40
2.0
100
AcDbArc
 50
180.0
 51
270.0
  0
LINE
  5
187C
330
75
100
AcDbEntity
  8
レイヤ__1
 62
     7
100
AcDbLine
 10
262.9506509724947
 20
118.5650026389357
 30
0.0
 11
262.9506509724947
 21
158.5650026389357
 31
0.0
  0
ARC
  5
187D
330
75
100
AcDbEntity
  8
レイヤ__1
 62
     7
100
AcDbCircle
 10
264.9506509724947
 20
158.5650026389357
 30
0.0
 40
2.0
100
AcDbArc
 50
90.0
 51
180.0
  0
CIRCLE
  5
187E
330
75
100
AcDbEntity
  8
レイヤ__1
 62
     7
100
AcDbCircle
 10
308.4782674900828
 20
128.6544511593493
 30
0.0
 40
4.25852486657648
  0
LINE
  5
187F
330
75
100
AcDbEntity
  8
レイヤ__1
 62
     7
100
AcDbLine
 10
304.7697045548657
 20
130.7409330323961
 30
0.0
 11
304.7697045548657
 21
126.5612251813935
 31
0.0
  0
LINE
  5
1880
330
75
100
AcDbEntity
  8
レイヤ__1
 62
     7
100
AcDbLine
 10
312.1906291034656
 20
130.7402577417273
 30
0.0
 11
312.1906291034656
 21
126.5679696016233
 31
0.0
  0
LINE
  5
1881
330
75
100
AcDbEntity
  8
レイヤ__1
 62
     7
100
AcDbLine
 10
302.5867216064808
 20
103.5650026389357
 30
0.0
 11
304.5794673411156
 21
103.5650026389357
 31
0.0
  0
ARC
  5
1882
330
75
100
AcDbEntity
  8
レイヤ__1
 62
     7
100
AcDbCircle
 10
304.5794673411156
 20
104.5650026389357
 30
0.0
 40
1.0
100
AcDbArc
 50
270.0
 51
348.9931136674794
  0
ARC
  5
1883
330
75
100
AcDbEntity
  8
レイヤ__1
 62
     7
100
AcDbCircle
 10
302.5867216064808
 20
104.0650026389357
 30
0.0
 40
0.5
100
AcDbArc
 50
184.4028013359278
 51
270.0
  0
ARC
  5
1884
330
75
100
AcDbEntity
  8
レイヤ__1
 62
     7
100
AcDbCircle
 10
301.4215374403557
 20
104.9995022779405
 30
0.0
 40
0.5
100
AcDbArc
 50
180.0
 51
270.0
  0
ARC
  5
1885
330
75
100
AcDbEntity
  8
レイヤ__1
 62
     7
100
AcDbCircle
 10
298.3208105241827
 20
104.9995022779405
 30
0.0
 40
0.5
100
AcDbArc
 50
270.0
 51
0.0
  0
ARC
  5
1886
330
75
100
AcDbEntity
  8
レイヤ__1
 62
     7
100
AcDbCircle
 10
297.3863095068477
 20
104.0650026389357
 30
0.0
 40
0.5
100
AcDbArc
 50
270.0
 51
0.0
  0
ARC
  5
1887
330
75
100
AcDbEntity
  8
レイヤ__1
 62
     7
100
AcDbCircle
 10
282.5187911163088
 20
104.0650026389357
 30
0.0
 40
0.5
100
AcDbArc
 50
180.0
 51
270.0
  0
ARC
  5
1888
330
75
100
AcDbEntity
  8
レイヤ__1
 62
     7
100
AcDbCircle
 10
281.5861894380566
 20
104.9596161571879
 30
0.0
 40
0.5
100
AcDbArc
 50
180.0
 51
270.0
  0
ARC
  5
1889
330
75
100
AcDbEntity
  8
レイヤ__1
 62
     7
100
AcDbCircle
 10
278.4854625218847
 20
104.9596161571879
 30
0.0
 40
0.5
100
AcDbArc
 50
270.0
 51
0.0
  0
LINE
  5
188A
330
75
100
AcDbEntity
  8
レイヤ__1
 62
     7
100
AcDbLine
 10
275.3175951743088
 20
103.5650026389357
 30
0.0
 11
277.3214487914456
 21
103.5650026389357
 31
0.0
  0
ARC
  5
188B
330
75
100
AcDbEntity
  8
レイヤ__1
 62
     7
100
AcDbCircle
 10
277.3214487914456
 20
104.0650026389357
 30
0.0
 40
0.5
100
AcDbArc
 50
270.0
 51
355.5971727906722
  0
ARC
  5
188C
330
75
100
AcDbEntity
  8
レイヤ__1
 62
     7
100
AcDbCircle
 10
275.3175951743088
 20
104.5650026389357
 30
0.0
 40
1.0
100
AcDbArc
 50
190.9407126885622
 51
270.0
  0
LINE
  5
188D
330
75
100
AcDbEntity
  8
レイヤ__1
 62
     7
100
AcDbLine
 10
281.0861894380566
 20
170.1033620545497
 30
0.0
 11
281.0861894380566
 21
172.1703891206836
 31
0.0
  0
LINE
  5
188E
330
75
100
AcDbEntity
  8
レイヤ__1
 62
     7
100
AcDbLine
 10
278.9854625218847
 20
170.1033620545497
 30
0.0
 11
278.9854625218847
 21
172.1703891206836
 31
0.0
  0
LINE
  5
188F
330
75
100
AcDbEntity
  8
レイヤ__1
 62
     7
100
AcDbLine
 10
278.4854625218847
 20
172.6703891206835
 30
0.0
 11
277.8531000977737
 21
172.6731428004985
 31
0.0
  0
ARC
  5
1890
330
75
100
AcDbEntity
  8
レイヤ__1
 62
     7
100
AcDbCircle
 10
278.4854625218847
 20
172.1703891206836
 30
0.0
 40
0.5
100
AcDbArc
 50
0.0
 51
90.0
  0
LINE
  5
1891
330
75
100
AcDbEntity
  8
レイヤ__1
 62
     7
100
AcDbLine
 10
282.0187911163088
 20
172.6703891206835
 30
0.0
 11
281.5861894380566
 21
172.6703891206835
 31
0.0
  0
ARC
  5
1892
330
75
100
AcDbEntity
  8
レイヤ__1
 62
     7
100
AcDbCircle
 10
281.5861894380566
 20
172.1703891206836
 30
0.0
 40
0.5
100
AcDbArc
 50
90.0
 51
180.0
  0
LINE
  5
1893
330
75
100
AcDbEntity
  8
レイヤ__1
 62
     7
100
AcDbLine
 10
277.8199732741367
 20
173.1033867522936
 30
0.0
 11
278.0509615045496
 21
170.1033620545497
 31
0.0
  0
LINE
  5
1894
330
75
100
AcDbEntity
  8
レイヤ__1
 62
     7
100
AcDbLine
 10
278.0509615045496
 20
170.1033620545497
 30
0.0
 11
282.0187911163088
 21
170.1033620545497
 31
0.0
  0
LINE
  5
1895
330
75
100
AcDbEntity
  8
レイヤ__1
 62
     7
100
AcDbLine
 10
282.0187911163088
 20
170.1033620545497
 30
0.0
 11
282.0187911163088
 21
173.0650026389357
 31
0.0
  0
LINE
  5
1896
330
75
100
AcDbEntity
  8
レイヤ__1
 62
     7
100
AcDbLine
 10
298.8208105241827
 20
172.1305029999306
 30
0.0
 11
298.8208105241827
 21
170.0634745554677
 31
0.0
  0
LINE
  5
1897
330
75
100
AcDbEntity
  8
レイヤ__1
 62
     7
100
AcDbLine
 10
300.9215374403557
 20
172.1305029999306
 30
0.0
 11
300.9215374403557
 21
170.0634745554677
 31
0.0
  0
ARC
  5
1898
330
75
100
AcDbEntity
  8
レイヤ__1
 62
     7
100
AcDbCircle
 10
301.4215374403557
 20
172.1305029999306
 30
0.0
 40
0.5
100
AcDbArc
 50
90.0
 51
180.0
  0
LINE
  5
1899
330
75
100
AcDbEntity
  8
レイヤ__1
 62
     7
100
AcDbLine
 10
302.0517874446297
 20
172.6305029999307
 30
0.0
 11
301.4215374403557
 21
172.6305029999307
 31
0.0
  0
LINE
  5
189A
330
75
100
AcDbEntity
  8
レイヤ__1
 62
     7
100
AcDbLine
 10
298.3208105241827
 20
172.6305029999307
 30
0.0
 11
297.8863095068478
 21
172.6305029999307
 31
0.0
  0
ARC
  5
189B
330
75
100
AcDbEntity
  8
レイヤ__1
 62
     7
100
AcDbCircle
 10
298.3208105241827
 20
172.1305029999306
 30
0.0
 40
0.5
100
AcDbArc
 50
0.0
 51
90.0
  0
LINE
  5
189C
330
75
100
AcDbEntity
  8
レイヤ__1
 62
     7
100
AcDbLine
 10
306.3895429579027
 20
168.4965471151436
 30
0.0
 11
305.5610715842977
 21
172.7559296138957
 31
0.0
  0
LINE
  5
189D
330
75
100
AcDbEntity
  8
レイヤ__1
 62
     7
100
AcDbLine
 10
274.3357710751377
 20
172.7547957849857
 30
0.0
 11
273.5096264719828
 21
168.4810446108307
 31
0.0
  0
ARC
  5
189E
330
75
100
AcDbEntity
  8
レイヤ__1
 62
     7
100
AcDbCircle
 10
275.3175951743088
 20
172.5650026389357
 30
0.0
 40
1.0
100
AcDbArc
 50
90.0
 51
169.059287311439
  0
LINE
  5
189F
330
75
100
AcDbEntity
  8
レイヤ__1
 62
     7
100
AcDbLine
 10
297.8863095068478
 20
173.0650026389357
 30
0.0
 11
297.8863095068478
 21
170.0634745554677
 31
0.0
  0
LINE
  5
18A0
330
75
100
AcDbEntity
  8
レイヤ__1
 62
     7
100
AcDbLine
 10
297.8863095068478
 20
170.0634745554677
 30
0.0
 11
301.8541391186068
 21
170.0634745554677
 31
0.0
  0
LINE
  5
18A1
330
75
100
AcDbEntity
  8
レイヤ__1
 62
     7
100
AcDbLine
 10
301.8541391186068
 20
170.0634745554677
 30
0.0
 11
302.0881971064566
 21
173.1033865271716
 31
0.0
  0
LINE
  5
18A2
330
75
100
AcDbEntity
  8
レイヤ__1
 62
     7
100
AcDbLine
 10
297.3863095068477
 20
173.5650026389357
 30
0.0
 11
282.5187911163088
 21
173.5650026389357
 31
0.0
  0
ARC
  5
18A3
330
75
100
AcDbEntity
  8
レイヤ__1
 62
     7
100
AcDbCircle
 10
282.5187911163088
 20
173.0650026389357
 30
0.0
 40
0.5
100
AcDbArc
 50
90.0
 51
180.0
  0
ARC
  5
18A4
330
75
100
AcDbEntity
  8
レイヤ__1
 62
     7
100
AcDbCircle
 10
297.3863095068477
 20
173.0650026389357
 30
0.0
 40
0.5
100
AcDbArc
 50
0.0
 51
90.0
  0
LINE
  5
18A5
330
75
100
AcDbEntity
  8
レイヤ__1
 62
     7
100
AcDbLine
 10
302.5867216064808
 20
173.5650026389357
 30
0.0
 11
304.5794673411156
 21
173.5650026389357
 31
0.0
  0
ARC
  5
18A6
330
75
100
AcDbEntity
  8
レイヤ__1
 62
     7
100
AcDbCircle
 10
302.5867216064808
 20
173.0650026389357
 30
0.0
 40
0.5
100
AcDbArc
 50
90.0
 51
175.597198664072
  0
ARC
  5
18A7
330
75
100
AcDbEntity
  8
レイヤ__1
 62
     7
100
AcDbCircle
 10
304.5794673411156
 20
172.5650026389357
 30
0.0
 40
1.0
100
AcDbArc
 50
11.00688633252095
 51
90.0
  0
LINE
  5
18A8
330
75
100
AcDbEntity
  8
レイヤ__1
 62
     7
100
AcDbLine
 10
275.3175951743088
 20
173.5650026389357
 30
0.0
 11
277.3214487914456
 21
173.5650026389357
 31
0.0
  0
ARC
  5
18A9
330
75
100
AcDbEntity
  8
レイヤ__1
 62
     7
100
AcDbCircle
 10
277.3214487914456
 20
173.0650026389357
 30
0.0
 40
0.5
100
AcDbArc
 50
4.40282720932833
 51
90.0
  0
TEXT
  5
18AA
330
75
100
AcDbEntity
  8
レイヤ__1
 62
     7
100
AcDbText
 10
263.7105872317097
 20
127.0687084588102
 30
0.0
 40
1.199999999999999
  1
DC12V
  7
FONT_0
 72
     1
 11
266.5105872317097
 21
127.6687084588102
 31
0.0
100
AcDbText
 73
     2
  0
TEXT
  5
18AB
330
75
100
AcDbEntity
  8
レイヤ__1
 62
     7
100
AcDbText
 10
263.5105872317097
 20
124.6687084588101
 30
0.0
 40
1.199999999999999
  1
AC24V
  7
FONT_0
 72
     1
 11
266.5105872317097
 21
125.2687084588101
 31
0.0
100
AcDbText
 73
     2
  0
TEXT
  5
18AC
330
75
100
AcDbEntity
  8
レイヤ__1
 62
     7
100
AcDbText
 10
264.0865281333907
 20
133.9747739341977
 30
0.0
 40
1.8
  1
INPUT
  7
FONT_0
 72
     1
 11
267.9865281333907
 21
134.8747739341977
 31
0.0
100
AcDbText
 73
     2
  0
TEXT
  5
18AD
330
75
100
AcDbEntity
  8
レイヤ__1
 62
     7
100
AcDbText
 10
288.1465921833599
 20
137.6076340559503
 30
0.0
 40
1.8
  1
POWER
  7
FONT_0
 72
     1
 11
292.6465921833599
 21
138.5076340559503
 31
0.0
100
AcDbText
 73
     2
  0
TEXT
  5
18AE
330
75
100
AcDbEntity
  8
レイヤ__1
 62
     7
100
AcDbText
 10
292.8236107805763
 20
129.1855144162099
 30
0.0
 40
1.8
  1
VIDEO
  7
FONT_0
 72
     1
 11
297.0236107805763
 21
130.0855144162099
 31
0.0
100
AcDbText
 73
     2
  0
TEXT
  5
18AF
330
75
100
AcDbEntity
  8
レイヤ__1
 62
     7
100
AcDbText
 10
294.6236107805763
 20
125.58551441621
 30
0.0
 40
1.8
  1
OUT
  7
FONT_0
 72
     1
 11
297.0236107805763
 21
126.48551441621
 31
0.0
100
AcDbText
 73
     2
  0
TEXT
  5
18B0
330
75
100
AcDbEntity
  8
レイヤ__1
 62
     7
100
AcDbText
 10
303.0605025289478
 20
141.0233014309949
 30
0.0
 40
1.8
  1
MONITOR
  7
FONT_0
 72
     1
 11
308.7605025289478
 21
141.9233014309949
 31
0.0
100
AcDbText
 73
     2
  0
TEXT
  5
18B1
330
75
100
AcDbEntity
  8
レイヤ__1
 62
     7
100
AcDbText
 10
306.3605025289478
 20
137.4233014309949
 30
0.0
 40
1.8
  1
OUT
  7
FONT_0
 72
     1
 11
308.7605025289478
 21
138.3233014309949
 31
0.0
100
AcDbText
 73
     2
  0
ENDSEC
  0
SECTION
  2
OBJECTS
  0
DICTIONARY
  5
C
330
0
100
AcDbDictionary
281
     1
  3
ACAD_2007HEADERVARS_RT
350
19E0
  3
ACAD_COLOR
350
6B
  3
ACAD_GROUP
350
D
  3
ACAD_LAYOUT
350
6A
  3
ACAD_MATERIAL
350
10
  3
ACAD_MLEADERSTYLE
350
6E
  3
ACAD_MLINESTYLE
350
67
  3
ACAD_PLOTSETTINGS
350
69
  3
ACAD_PLOTSTYLENAME
350
E
  3
ACAD_SCALELIST
350
3A
  3
ACAD_TABLESTYLE
350
6C
  3
ACAD_VISUALSTYLE
350
29
  3
ACDB_RECOMPOSE_DATA
350
7A1
  3
AcDbVariableDictionary
350
795
  3
AcmDictionary
350
DC
  3
AMG
350
7F
  3
AMGSNAPSETTINGS
350
3F7
  3
ASE_INDEX_DICTIONARY
350
11C2
  3
DWGPROPS
350
19DF
  0
DICTIONARY
  5
78D
330
5C
100
AcDbDictionary
280
     1
281
     1
  3
ADSK_XREC_LAYER_RECONCILED
360
78E
  0
DICTIONARY
  5
21E
330
21D
100
AcDbDictionary
280
     1
281
     1
  3
ADSK_XREC_LAYER_RECONCILED
360
78F
  0
DICTIONARY
  5
221
330
220
100
AcDbDictionary
280
     1
281
     1
  3
ADSK_XREC_LAYER_RECONCILED
360
790
  0
DICTIONARY
  5
223
330
222
100
AcDbDictionary
280
     1
281
     1
  3
ADSK_XREC_LAYER_RECONCILED
360
791
  0
DICTIONARY
  5
225
330
224
100
AcDbDictionary
280
     1
281
     1
  3
ADSK_XREC_LAYER_RECONCILED
360
792
  0
DICTIONARY
  5
793
330
226
100
AcDbDictionary
280
     1
281
     1
  3
ADSK_XREC_LAYER_RECONCILED
360
794
  0
DICTIONARY
  5
19E0
102
{ACAD_REACTORS
330
C
102
}
330
C
100
AcDbDictionary
281
     1
  3
DIMARCSYM
350
19E1
  3
DIMJOGANG
350
19E2
  0
DICTIONARY
  5
6B
102
{ACAD_REACTORS
330
C
102
}
330
C
100
AcDbDictionary
281
     1
  0
DICTIONARY
  5
D
102
{ACAD_REACTORS
330
C
102
}
330
C
100
AcDbDictionary
281
     1
  0
DICTIONARY
  5
6A
102
{ACAD_REACTORS
330
C
102
}
330
C
100
AcDbDictionary
281
     1
  3
Model
350
78
  3
レイアウト1
350
74
  3
レイアウト2
350
7C
  0
DICTIONARY
  5
10
102
{ACAD_REACTORS
330
C
102
}
330
C
100
AcDbDictionary
281
     1
  3
ByBlock
350
19
  3
ByLayer
350
11
  3
Global
350
21
  0
DICTIONARY
  5
6E
102
{ACAD_REACTORS
330
C
102
}
330
C
100
AcDbDictionary
281
     1
  3
Standard
350
6F
  0
DICTIONARY
  5
67
102
{ACAD_REACTORS
330
C
102
}
330
C
100
AcDbDictionary
281
     1
  3
Standard
350
68
  0
DICTIONARY
  5
69
102
{ACAD_REACTORS
330
C
102
}
330
C
100
AcDbDictionary
281
     1
  0
ACDBDICTIONARYWDFLT
  5
E
102
{ACAD_REACTORS
330
C
102
}
330
C
100
AcDbDictionary
281
     1
  3
Normal
350
F
100
AcDbDictionaryWithDefault
340
F
  0
DICTIONARY
  5
3A
102
{ACAD_REACTORS
330
C
102
}
330
C
100
AcDbDictionary
281
     1
  3
A0
350
3B
  3
A1
350
3C
  3
A2
350
3D
  3
A3
350
3E
  3
A4
350
3F
  3
A5
350
40
  3
A6
350
41
  3
A7
350
42
  3
A8
350
43
  3
A9
350
44
  3
B0
350
45
  3
B1
350
46
  3
B2
350
47
  3
B3
350
48
  3
B4
350
49
  3
B5
350
4A
  3
B6
350
4B
  3
B7
350
4C
  3
B8
350
4D
  3
B9
350
4E
  3
C0
350
4F
  3
C1
350
50
  3
C2
350
51
  3
C3
350
52
  3
C4
350
53
  3
C5
350
54
  3
C6
350
55
  3
C7
350
56
  3
C8
350
57
  3
C9
350
58
  3
D0
350
59
  3
D1
350
5A
  3
D2
350
5B
  0
DICTIONARY
  5
6C
102
{ACAD_REACTORS
330
C
102
}
330
C
100
AcDbDictionary
281
     1
  3
Standard
350
6D
  0
DICTIONARY
  5
29
102
{ACAD_REACTORS
330
C
102
}
330
C
100
AcDbDictionary
281
     1
  3
2dWireframe
350
2F
  3
3D Hidden
350
31
  3
3dWireframe
350
30
  3
Basic
350
2E
  3
Brighten
350
35
  3
ColorChange
350
39
  3
Conceptual
350
32
  3
Dim
350
34
  3
Facepattern
350
38
  3
Flat
350
2A
  3
FlatWithEdges
350
2B
  3
Gouraud
350
2C
  3
GouraudWithEdges
350
2D
  3
Linepattern
350
37
  3
Realistic
350
33
  3
Thicken
350
36
  0
XRECORD
  5
7A1
102
{ACAD_REACTORS
330
C
102
}
330
C
100
AcDbXrecord
280
     1
 90
        1
330
6D
  0
DICTIONARY
  5
795
102
{ACAD_REACTORS
330
C
102
}
330
C
100
AcDbDictionary
281
     1
  3
CANNOSCALE
350
799
  3
CMLEADERSTYLE
350
797
  3
CTABLESTYLE
350
796
  3
DIMASSOC
350
79E
  3
HIDETEXT
350
79D
  3
INDEXCTL
350
79C
  3
LIGHTINGUNITS
350
79A
  3
MSLTSCALE
350
798
  3
SORTENTS
350
79B
  0
DICTIONARY
  5
DC
102
{ACAD_REACTORS
330
C
102
}
330
C
100
AcDbDictionary
281
     1
  3
AcmStdDictionary
350
DE
  3
AMDTSECTSYM_ARROWCOLOR
350
F6
  0
DICTIONARY
  5
7F
102
{ACAD_REACTORS
330
C
102
}
330
C
100
AcDbDictionary
281
     1
  0
DICTIONARY
  5
3F7
102
{ACAD_REACTORS
330
C
102
}
330
C
100
AcDbDictionary
281
     1
  0
DICTIONARY
  5
11C2
102
{ACAD_REACTORS
330
C
102
}
330
C
100
AcDbDictionary
281
     1
  3
ASEBlockHierarchyIndexRecord
350
11C3
1001
DCO15
1040
1831638187.187
  0
XRECORD
  5
19DF
102
{ACAD_REACTORS
330
C
102
}
330
C
100
AcDbXrecord
280
     1
  1
DWGPROPS COOKIE
  2

  3

  4

  6

  7

  8
Administrator
  9

300
=
301
=
302
=
303
=
304
=
305
=
306
=
307
=
308
=
309
=
 40
0.0266089699074074
 41
2457002.571584919
 42
2457008.699233218
  1

 90
        0
  0
XRECORD
  5
78E
102
{ACAD_REACTORS
330
78D
102
}
330
78D
100
AcDbXrecord
280
     1
290
     1
  0
XRECORD
  5
78F
102
{ACAD_REACTORS
330
21E
102
}
330
21E
100
AcDbXrecord
280
     1
290
     1
  0
XRECORD
  5
790
102
{ACAD_REACTORS
330
221
102
}
330
221
100
AcDbXrecord
280
     1
290
     1
  0
XRECORD
  5
791
102
{ACAD_REACTORS
330
223
102
}
330
223
100
AcDbXrecord
280
     1
290
     1
  0
XRECORD
  5
792
102
{ACAD_REACTORS
330
225
102
}
330
225
100
AcDbXrecord
280
     1
290
     1
  0
XRECORD
  5
794
102
{ACAD_REACTORS
330
793
102
}
330
793
100
AcDbXrecord
280
     1
290
     1
  0
XRECORD
  5
19E1
102
{ACAD_REACTORS
330
19E0
102
}
330
19E0
100
AcDbXrecord
280
     1
 70
     1
  0
XRECORD
  5
19E2
102
{ACAD_REACTORS
330
19E0
102
}
330
19E0
100
AcDbXrecord
280
     1
 40
1.570796326794896
  0
LAYOUT
  5
78
102
{ACAD_XDICTIONARY
360
19E6
102
}
102
{ACAD_REACTORS
330
6A
102
}
330
6A
100
AcDbPlotSettings
  1

  2
EPSON LP-8800C
  4

  6

 40
0.0
 41
0.0
 42
0.0
 43
0.0
 44
0.0
 45
0.0
 46
0.0
 47
0.0
 48
0.0
 49
0.0
140
0.0
141
0.0
142
1.0
143
1.0
 70
  1712
 72
     0
 73
     0
 74
     0
  7

 75
     0
147
1.0
148
0.0
149
0.0
100
AcDbLayout
  1
Model
 70
     1
 71
     0
 10
0.0
 20
0.0
 11
12.0
 21
9.0
 12
0.0
 22
0.0
 32
0.0
 14
0.0
 24
0.0
 34
0.0
 15
0.0
 25
0.0
 35
0.0
146
0.0
 13
0.0
 23
0.0
 33
0.0
 16
1.0
 26
0.0
 36
0.0
 17
0.0
 27
1.0
 37
0.0
 76
     0
330
75
331
5F
  0
LAYOUT
  5
74
102
{ACAD_XDICTIONARY
360
19E4
102
}
102
{ACAD_REACTORS
330
6A
102
}
330
6A
100
AcDbPlotSettings
  1

  2
EPSON LP-8800C
  4

  6

 40
0.0
 41
0.0
 42
0.0
 43
0.0
 44
0.0
 45
0.0
 46
0.0
 47
0.0
 48
0.0
 49
0.0
140
0.0
141
0.0
142
1.0
143
1.0
 70
   688
 72
     0
 73
     0
 74
     5
  7

 75
    16
147
1.0
148
0.0
149
0.0
100
AcDbLayout
  1
レイアウト1
 70
     1
 71
     1
 10
0.0
 20
0.0
 11
420.0
 21
297.0
 12
0.0
 22
0.0
 32
0.0
 14
1.000000000000000E+20
 24
1.000000000000000E+20
 34
1.000000000000000E+20
 15
-1.000000000000000E+20
 25
-1.000000000000000E+20
 35
-1.000000000000000E+20
146
0.0
 13
0.0
 23
0.0
 33
0.0
 16
1.0
 26
0.0
 36
0.0
 17
0.0
 27
1.0
 37
0.0
 76
     0
330
71
  0
LAYOUT
  5
7C
102
{ACAD_XDICTIONARY
360
19E8
102
}
102
{ACAD_REACTORS
330
6A
102
}
330
6A
100
AcDbPlotSettings
  1

  2
EPSON LP-8800C
  4

  6

 40
0.0
 41
0.0
 42
0.0
 43
0.0
 44
0.0
 45
0.0
 46
0.0
 47
0.0
 48
0.0
 49
0.0
140
0.0
141
0.0
142
1.0
143
1.0
 70
   688
 72
     0
 73
     0
 74
     5
  7

 75
    16
147
1.0
148
0.0
149
0.0
100
AcDbLayout
  1
レイアウト2
 70
     1
 71
     2
 10
0.0
 20
0.0
 11
12.0
 21
9.0
 12
0.0
 22
0.0
 32
0.0
 14
0.0
 24
0.0
 34
0.0
 15
0.0
 25
0.0
 35
0.0
146
0.0
 13
0.0
 23
0.0
 33
0.0
 16
1.0
 26
0.0
 36
0.0
 17
0.0
 27
1.0
 37
0.0
 76
     0
330
79
  0
MATERIAL
  5
19
102
{ACAD_XDICTIONARY
360
1A
102
}
102
{ACAD_REACTORS
330
10
102
}
330
10
100
AcDbMaterial
  1
ByBlock
 72
     0
 43
0.0208333333333333
 43
0.0
 43
0.0
 43
0.0
 43
0.0
 43
0.0208333333333333
 43
0.0
 43
0.0
 43
0.0
 43
0.0
 43
1.0
 43
0.0
 43
0.0
 43
0.0
 43
0.0
 43
1.0
 77
     0
 47
0.0208333333333333
 47
0.0
 47
0.0
 47
0.0
 47
0.0
 47
0.0208333333333333
 47
0.0
 47
0.0
 47
0.0
 47
0.0
 47
1.0
 47
0.0
 47
0.0
 47
0.0
 47
0.0
 47
1.0
171
     0
 49
0.0208333333333333
 49
0.0
 49
0.0
 49
0.0
 49
0.0
 49
0.0208333333333333
 49
0.0
 49
0.0
 49
0.0
 49
0.0
 49
1.0
 49
0.0
 49
0.0
 49
0.0
 49
0.0
 49
1.0
175
     0
142
0.0208333333333333
142
0.0
142
0.0
142
0.0
142
0.0
142
0.0208333333333333
142
0.0
142
0.0
142
0.0
142
0.0
142
1.0
142
0.0
142
0.0
142
0.0
142
0.0
142
1.0
179
     0
144
0.0208333333333333
144
0.0
144
0.0
144
0.0
144
0.0
144
0.0208333333333333
144
0.0
144
0.0
144
0.0
144
0.0
144
1.0
144
0.0
144
0.0
144
0.0
144
0.0
144
1.0
147
0.0208333333333333
147
0.0
147
0.0
147
0.0
147
0.0
147
0.0208333333333333
147
0.0
147
0.0
147
0.0
147
0.0
147
1.0
147
0.0
147
0.0
147
0.0
147
0.0
147
1.0
  0
MATERIAL
  5
11
102
{ACAD_XDICTIONARY
360
12
102
}
102
{ACAD_REACTORS
330
10
102
}
330
10
100
AcDbMaterial
  1
ByLayer
 72
     0
 43
0.0208333333333333
 43
0.0
 43
0.0
 43
0.0
 43
0.0
 43
0.0208333333333333
 43
0.0
 43
0.0
 43
0.0
 43
0.0
 43
1.0
 43
0.0
 43
0.0
 43
0.0
 43
0.0
 43
1.0
 77
     0
 47
0.0208333333333333
 47
0.0
 47
0.0
 47
0.0
 47
0.0
 47
0.0208333333333333
 47
0.0
 47
0.0
 47
0.0
 47
0.0
 47
1.0
 47
0.0
 47
0.0
 47
0.0
 47
0.0
 47
1.0
171
     0
 49
0.0208333333333333
 49
0.0
 49
0.0
 49
0.0
 49
0.0
 49
0.0208333333333333
 49
0.0
 49
0.0
 49
0.0
 49
0.0
 49
1.0
 49
0.0
 49
0.0
 49
0.0
 49
0.0
 49
1.0
175
     0
142
0.0208333333333333
142
0.0
142
0.0
142
0.0
142
0.0
142
0.0208333333333333
142
0.0
142
0.0
142
0.0
142
0.0
142
1.0
142
0.0
142
0.0
142
0.0
142
0.0
142
1.0
179
     0
144
0.0208333333333333
144
0.0
144
0.0
144
0.0
144
0.0
144
0.0208333333333333
144
0.0
144
0.0
144
0.0
144
0.0
144
1.0
144
0.0
144
0.0
144
0.0
144
0.0
144
1.0
147
0.0208333333333333
147
0.0
147
0.0
147
0.0
147
0.0
147
0.0208333333333333
147
0.0
147
0.0
147
0.0
147
0.0
147
1.0
147
0.0
147
0.0
147
0.0
147
0.0
147
1.0
  0
MATERIAL
  5
21
102
{ACAD_XDICTIONARY
360
22
102
}
102
{ACAD_REACTORS
330
10
102
}
330
10
100
AcDbMaterial
  1
Global
 72
     0
 43
0.0208333333333333
 43
0.0
 43
0.0
 43
0.0
 43
0.0
 43
0.0208333333333333
 43
0.0
 43
0.0
 43
0.0
 43
0.0
 43
1.0
 43
0.0
 43
0.0
 43
0.0
 43
0.0
 43
1.0
 77
     0
 47
0.0208333333333333
 47
0.0
 47
0.0
 47
0.0
 47
0.0
 47
0.0208333333333333
 47
0.0
 47
0.0
 47
0.0
 47
0.0
 47
1.0
 47
0.0
 47
0.0
 47
0.0
 47
0.0
 47
1.0
171
     0
 49
0.0208333333333333
 49
0.0
 49
0.0
 49
0.0
 49
0.0
 49
0.0208333333333333
 49
0.0
 49
0.0
 49
0.0
 49
0.0
 49
1.0
 49
0.0
 49
0.0
 49
0.0
 49
0.0
 49
1.0
175
     0
142
0.0208333333333333
142
0.0
142
0.0
142
0.0
142
0.0
142
0.0208333333333333
142
0.0
142
0.0
142
0.0
142
0.0
142
1.0
142
0.0
142
0.0
142
0.0
142
0.0
142
1.0
179
     0
144
0.0208333333333333
144
0.0
144
0.0
144
0.0
144
0.0
144
0.0208333333333333
144
0.0
144
0.0
144
0.0
144
0.0
144
1.0
144
0.0
144
0.0
144
0.0
144
0.0
144
1.0
147
0.0208333333333333
147
0.0
147
0.0
147
0.0
147
0.0
147
0.0208333333333333
147
0.0
147
0.0
147
0.0
147
0.0
147
1.0
147
0.0
147
0.0
147
0.0
147
0.0
147
1.0
  0
MLEADERSTYLE
  5
6F
102
{ACAD_REACTORS
330
6E
102
}
330
6E
100
AcDbMLeaderStyle
170
     2
171
     1
172
     0
 90
        2
 40
0.0
 41
0.0
173
     1
 91
-1056964608
340
63
 92
       -2
290
     1
 42
0.09
291
     1
 43
0.36
  3
Standard
 44
0.18
300

342
5D
174
     1
178
     6
175
     1
176
     0
 93
-1056964608
 45
0.18
292
     0
297
     0
 46
0.18
 94
-1056964608
 47
1.0
 49
1.0
140
1.0
293
     1
141
0.0
294
     1
177
     0
142
1.0
295
     0
296
     0
143
0.125
1001
ACAD_MLEADERVER
1070
     2
  0
MLINESTYLE
  5
68
102
{ACAD_REACTORS
330
67
102
}
330
67
100
AcDbMlineStyle
  2
STANDARD
 70
     0
  3

 62
   256
 51
90.0
 52
90.0
 71
     2
 49
0.5
 62
   256
  6
BYLAYER
 49
-0.5
 62
   256
  6
BYLAYER
  0
ACDBPLACEHOLDER
  5
F
102
{ACAD_REACTORS
330
E
102
}
330
E
  0
SCALE
  5
3B
102
{ACAD_REACTORS
330
3A
102
}
330
3A
100
AcDbScale
 70
     0
300
1:1
140
1.0
141
1.0
290
     1
  0
SCALE
  5
3C
102
{ACAD_REACTORS
330
3A
102
}
330
3A
100
AcDbScale
 70
     0
300
1:2
140
1.0
141
2.0
290
     0
  0
SCALE
  5
3D
102
{ACAD_REACTORS
330
3A
102
}
330
3A
100
AcDbScale
 70
     0
300
1:4
140
1.0
141
4.0
290
     0
  0
SCALE
  5
3E
102
{ACAD_REACTORS
330
3A
102
}
330
3A
100
AcDbScale
 70
     0
300
1:5
140
1.0
141
5.0
290
     0
  0
SCALE
  5
3F
102
{ACAD_REACTORS
330
3A
102
}
330
3A
100
AcDbScale
 70
     0
300
1:8
140
1.0
141
8.0
290
     0
  0
SCALE
  5
40
102
{ACAD_REACTORS
330
3A
102
}
330
3A
100
AcDbScale
 70
     0
300
1:10
140
1.0
141
10.0
290
     0
  0
SCALE
  5
41
102
{ACAD_REACTORS
330
3A
102
}
330
3A
100
AcDbScale
 70
     0
300
1:16
140
1.0
141
16.0
290
     0
  0
SCALE
  5
42
102
{ACAD_REACTORS
330
3A
102
}
330
3A
100
AcDbScale
 70
     0
300
1:20
140
1.0
141
20.0
290
     0
  0
SCALE
  5
43
102
{ACAD_REACTORS
330
3A
102
}
330
3A
100
AcDbScale
 70
     0
300
1:30
140
1.0
141
30.0
290
     0
  0
SCALE
  5
44
102
{ACAD_REACTORS
330
3A
102
}
330
3A
100
AcDbScale
 70
     0
300
1:40
140
1.0
141
40.0
290
     0
  0
SCALE
  5
45
102
{ACAD_REACTORS
330
3A
102
}
330
3A
100
AcDbScale
 70
     0
300
1:50
140
1.0
141
50.0
290
     0
  0
SCALE
  5
46
102
{ACAD_REACTORS
330
3A
102
}
330
3A
100
AcDbScale
 70
     0
300
1:100
140
1.0
141
100.0
290
     0
  0
SCALE
  5
47
102
{ACAD_REACTORS
330
3A
102
}
330
3A
100
AcDbScale
 70
     0
300
2:1
140
2.0
141
1.0
290
     0
  0
SCALE
  5
48
102
{ACAD_REACTORS
330
3A
102
}
330
3A
100
AcDbScale
 70
     0
300
4:1
140
4.0
141
1.0
290
     0
  0
SCALE
  5
49
102
{ACAD_REACTORS
330
3A
102
}
330
3A
100
AcDbScale
 70
     0
300
8:1
140
8.0
141
1.0
290
     0
  0
SCALE
  5
4A
102
{ACAD_REACTORS
330
3A
102
}
330
3A
100
AcDbScale
 70
     0
300
10:1
140
10.0
141
1.0
290
     0
  0
SCALE
  5
4B
102
{ACAD_REACTORS
330
3A
102
}
330
3A
100
AcDbScale
 70
     0
300
100:1
140
100.0
141
1.0
290
     0
  0
SCALE
  5
4C
102
{ACAD_REACTORS
330
3A
102
}
330
3A
100
AcDbScale
 70
     0
300
1/128" = 1'-0"
140
0.0078125
141
12.0
290
     0
  0
SCALE
  5
4D
102
{ACAD_REACTORS
330
3A
102
}
330
3A
100
AcDbScale
 70
     0
300
1/64" = 1'-0"
140
0.015625
141
12.0
290
     0
  0
SCALE
  5
4E
102
{ACAD_REACTORS
330
3A
102
}
330
3A
100
AcDbScale
 70
     0
300
1/32" = 1'-0"
140
0.03125
141
12.0
290
     0
  0
SCALE
  5
4F
102
{ACAD_REACTORS
330
3A
102
}
330
3A
100
AcDbScale
 70
     0
300
1/16" = 1'-0"
140
0.0625
141
12.0
290
     0
  0
SCALE
  5
50
102
{ACAD_REACTORS
330
3A
102
}
330
3A
100
AcDbScale
 70
     0
300
3/32" = 1'-0"
140
0.09375
141
12.0
290
     0
  0
SCALE
  5
51
102
{ACAD_REACTORS
330
3A
102
}
330
3A
100
AcDbScale
 70
     0
300
1/8" = 1'-0"
140
0.125
141
12.0
290
     0
  0
SCALE
  5
52
102
{ACAD_REACTORS
330
3A
102
}
330
3A
100
AcDbScale
 70
     0
300
3/16" = 1'-0"
140
0.1875
141
12.0
290
     0
  0
SCALE
  5
53
102
{ACAD_REACTORS
330
3A
102
}
330
3A
100
AcDbScale
 70
     0
300
1/4" = 1'-0"
140
0.25
141
12.0
290
     0
  0
SCALE
  5
54
102
{ACAD_REACTORS
330
3A
102
}
330
3A
100
AcDbScale
 70
     0
300
3/8" = 1'-0"
140
0.375
141
12.0
290
     0
  0
SCALE
  5
55
102
{ACAD_REACTORS
330
3A
102
}
330
3A
100
AcDbScale
 70
     0
300
1/2" = 1'-0"
140
0.5
141
12.0
290
     0
  0
SCALE
  5
56
102
{ACAD_REACTORS
330
3A
102
}
330
3A
100
AcDbScale
 70
     0
300
3/4" = 1'-0"
140
0.75
141
12.0
290
     0
  0
SCALE
  5
57
102
{ACAD_REACTORS
330
3A
102
}
330
3A
100
AcDbScale
 70
     0
300
1" = 1'-0"
140
1.0
141
12.0
290
     0
  0
SCALE
  5
58
102
{ACAD_REACTORS
330
3A
102
}
330
3A
100
AcDbScale
 70
     0
300
1-1/2" = 1'-0"
140
1.5
141
12.0
290
     0
  0
SCALE
  5
59
102
{ACAD_REACTORS
330
3A
102
}
330
3A
100
AcDbScale
 70
     0
300
3" = 1'-0"
140
3.0
141
12.0
290
     0
  0
SCALE
  5
5A
102
{ACAD_REACTORS
330
3A
102
}
330
3A
100
AcDbScale
 70
     0
300
6" = 1'-0"
140
6.0
141
12.0
290
     0
  0
SCALE
  5
5B
102
{ACAD_REACTORS
330
3A
102
}
330
3A
100
AcDbScale
 70
     0
300
1'-0" = 1'-0"
140
12.0
141
12.0
290
     0
  0
TABLESTYLE
  5
6D
102
{ACAD_XDICTIONARY
360
79F
102
}
102
{ACAD_REACTORS
330
6C
102
}
330
6C
100
AcDbTableStyle
  3
Standard
 70
     0
 71
     0
 40
1.5
 41
1.5
280
     0
281
     0
  7
STANDARD
140
4.5
170
     2
 62
     0
 63
     7
283
     0
274
    -2
284
     1
 64
     0
275
    -2
285
     1
 65
     0
276
    -2
286
     1
 66
     0
277
    -2
287
     1
 67
     0
278
    -2
288
     1
 68
     0
279
    -2
289
     1
 69
     0
  7
STANDARD
140
6.0
170
     5
 62
     0
 63
     7
283
     0
274
    -2
284
     1
 64
     0
275
    -2
285
     1
 65
     0
276
    -2
286
     1
 66
     0
277
    -2
287
     1
 67
     0
278
    -2
288
     1
 68
     0
279
    -2
289
     1
 69
     0
  7
STANDARD
140
4.5
170
     5
 62
     0
 63
     7
283
     0
274
    -2
284
     1
 64
     0
275
    -2
285
     1
 65
     0
276
    -2
286
     1
 66
     0
277
    -2
287
     1
 67
     0
278
    -2
288
     1
 68
     0
279
    -2
289
     1
 69
     0
  0
VISUALSTYLE
  5
2F
102
{ACAD_REACTORS
330
29
102
}
330
29
100
AcDbVisualStyle
  2
2dWireframe
 70
     4
 71
     0
 72
     2
 73
     0
 90
        0
 40
-0.6
 41
-30.0
 62
     5
 63
     7
 74
     1
 91
        4
 64
     7
 65
   257
 75
     1
175
     1
 42
1.0
 92
        0
 66
   257
 43
1.0
 76
     1
 77
     6
 78
     2
 67
     7
 79
     5
170
     0
171
     0
290
     0
174
     0
 93
        1
 44
0.0
173
     0
291
     0
 45
0.0
1001
ACAD
1000
AcDbSavedByObjectVersion
1070
     0
1000
AcDbSavedByObjectVersion
1070
     0
1000
AcDbSavedByObjectVersion
1070
     0
1000
AcDbSavedByObjectVersion
1070
     0
1000
AcDbSavedByObjectVersion
1070
     0
1000
AcDbSavedByObjectVersion
1070
     0
  0
VISUALSTYLE
  5
31
102
{ACAD_REACTORS
330
29
102
}
330
29
100
AcDbVisualStyle
  2
3D Hidden
 70
     6
 71
     1
 72
     2
 73
     2
 90
        0
 40
-0.6
 41
-30.0
 62
     5
 63
     7
 74
     2
 91
        2
 64
     7
 65
   257
 75
     2
175
     1
 42
40.0
 92
        0
 66
   257
 43
1.0
 76
     1
 77
     6
 78
     2
 67
     7
 79
     3
170
     0
171
     0
290
     0
174
     0
 93
        1
 44
0.0
173
     0
291
     0
 45
0.0
1001
ACAD
1000
AcDbSavedByObjectVersion
1070
     0
1000
AcDbSavedByObjectVersion
1070
     0
1000
AcDbSavedByObjectVersion
1070
     0
1000
AcDbSavedByObjectVersion
1070
     0
1000
AcDbSavedByObjectVersion
1070
     0
1000
AcDbSavedByObjectVersion
1070
     0
  0
VISUALSTYLE
  5
30
102
{ACAD_REACTORS
330
29
102
}
330
29
100
AcDbVisualStyle
  2
3dWireframe
 70
     5
 71
     0
 72
     2
 73
     0
 90
        0
 40
-0.6
 41
-30.0
 62
     5
 63
     7
 74
     1
 91
        4
 64
     7
 65
   257
 75
     1
175
     1
 42
1.0
 92
        0
 66
   257
 43
1.0
 76
     1
 77
     6
 78
     2
 67
     7
 79
     5
170
     0
171
     0
290
     0
174
     0
 93
        1
 44
0.0
173
     0
291
     0
 45
0.0
1001
ACAD
1000
AcDbSavedByObjectVersion
1070
     0
1000
AcDbSavedByObjectVersion
1070
     0
1000
AcDbSavedByObjectVersion
1070
     0
1000
AcDbSavedByObjectVersion
1070
     0
1000
AcDbSavedByObjectVersion
1070
     0
1000
AcDbSavedByObjectVersion
1070
     0
  0
VISUALSTYLE
  5
2E
102
{ACAD_REACTORS
330
29
102
}
330
29
100
AcDbVisualStyle
  2
Basic
 70
     7
 71
     1
 72
     0
 73
     1
 90
        0
 40
-0.6
 41
-30.0
 62
     5
 63
     7
 74
     0
 91
        4
 64
     7
 65
   257
 75
     1
175
     1
 42
1.0
 92
        8
 66
     7
 43
1.0
 76
     1
 77
     6
 78
     2
 67
     7
 79
     5
170
     0
171
     0
290
     0
174
     0
 93
        1
 44
0.0
173
     0
291
     1
 45
0.0
1001
ACAD
1000
AcDbSavedByObjectVersion
1070
     0
1000
AcDbSavedByObjectVersion
1070
     0
1000
AcDbSavedByObjectVersion
1070
     0
1000
AcDbSavedByObjectVersion
1070
     0
1000
AcDbSavedByObjectVersion
1070
     0
1000
AcDbSavedByObjectVersion
1070
     0
  0
VISUALSTYLE
  5
35
102
{ACAD_REACTORS
330
29
102
}
330
29
100
AcDbVisualStyle
  2
Brighten
 70
    12
 71
     2
 72
     2
 73
     0
 90
        0
 40
-0.6
 41
-30.0
 62
     5
 63
     7
 74
     1
 91
        4
 64
     7
 65
   257
 75
     1
175
     1
 42
1.0
 92
        8
 66
     7
 43
1.0
 76
     1
 77
     6
 78
     2
 67
     7
 79
     5
170
     0
171
     0
290
     0
174
     0
 93
        1
 44
50.0
173
     0
291
     1
 45
0.0
1001
ACAD
1000
AcDbSavedByObjectVersion
1070
     0
1000
AcDbSavedByObjectVersion
1070
     0
1000
AcDbSavedByObjectVersion
1070
     0
1000
AcDbSavedByObjectVersion
1070
     0
1000
AcDbSavedByObjectVersion
1070
     0
1000
AcDbSavedByObjectVersion
1070
     0
  0
VISUALSTYLE
  5
39
102
{ACAD_REACTORS
330
29
102
}
330
29
100
AcDbVisualStyle
  2
ColorChange
 70
    16
 71
     2
 72
     2
 73
     3
 90
        0
 40
-0.6
 41
-30.0
 62
     5
 63
     8
 74
     1
 91
        4
 64
     7
 65
   257
 75
     1
175
     1
 42
1.0
 92
        8
 66
     8
 43
1.0
 76
     1
 77
     6
 78
     2
 67
     7
 79
     5
170
     0
171
     0
290
     0
174
     0
 93
        1
 44
0.0
173
     0
291
     1
 45
0.0
1001
ACAD
1000
AcDbSavedByObjectVersion
1070
     0
1000
AcDbSavedByObjectVersion
1070
     0
1000
AcDbSavedByObjectVersion
1070
     0
1000
AcDbSavedByObjectVersion
1070
     0
1000
AcDbSavedByObjectVersion
1070
     0
1000
AcDbSavedByObjectVersion
1070
     0
  0
VISUALSTYLE
  5
32
102
{ACAD_REACTORS
330
29
102
}
330
29
100
AcDbVisualStyle
  2
Conceptual
 70
     9
 71
     3
 72
     2
 73
     0
 90
        0
 40
-0.6
 41
-30.0
 62
     5
 63
     7
 74
     2
 91
        2
 64
     7
 65
   257
 75
     1
175
     1
 42
40.0
 92
        8
 66
     7
 43
1.0
 76
     1
 77
     6
 78
     2
 67
     7
 79
     3
170
     0
171
     0
290
     0
174
     0
 93
        1
 44
0.0
173
     0
291
     0
 45
0.0
1001
ACAD
1000
AcDbSavedByObjectVersion
1070
     0
1000
AcDbSavedByObjectVersion
1070
     0
1000
AcDbSavedByObjectVersion
1070
     0
1000
AcDbSavedByObjectVersion
1070
     0
1000
AcDbSavedByObjectVersion
1070
     0
1000
AcDbSavedByObjectVersion
1070
     0
  0
VISUALSTYLE
  5
34
102
{ACAD_REACTORS
330
29
102
}
330
29
100
AcDbVisualStyle
  2
Dim
 70
    11
 71
     2
 72
     2
 73
     0
 90
        0
 40
-0.6
 41
-30.0
 62
     5
 63
     7
 74
     1
 91
        4
 64
     7
 65
   257
 75
     1
175
     1
 42
1.0
 92
        8
 66
     7
 43
1.0
 76
     1
 77
     6
 78
     2
 67
     7
 79
     5
170
     0
171
     0
290
     0
174
     0
 93
        1
 44
-50.0
173
     0
291
     1
 45
0.0
1001
ACAD
1000
AcDbSavedByObjectVersion
1070
     0
1000
AcDbSavedByObjectVersion
1070
     0
1000
AcDbSavedByObjectVersion
1070
     0
1000
AcDbSavedByObjectVersion
1070
     0
1000
AcDbSavedByObjectVersion
1070
     0
1000
AcDbSavedByObjectVersion
1070
     0
  0
VISUALSTYLE
  5
38
102
{ACAD_REACTORS
330
29
102
}
330
29
100
AcDbVisualStyle
  2
Facepattern
 70
    15
 71
     2
 72
     2
 73
     0
 90
        0
 40
-0.6
 41
-30.0
 62
     5
 63
     7
 74
     1
 91
        4
 64
     7
 65
   257
 75
     1
175
     1
 42
1.0
 92
        8
 66
     7
 43
1.0
 76
     1
 77
     6
 78
     2
 67
     7
 79
     5
170
     0
171
     0
290
     0
174
     0
 93
        1
 44
0.0
173
     0
291
     1
 45
0.0
1001
ACAD
1000
AcDbSavedByObjectVersion
1070
     0
1000
AcDbSavedByObjectVersion
1070
     0
1000
AcDbSavedByObjectVersion
1070
     0
1000
AcDbSavedByObjectVersion
1070
     0
1000
AcDbSavedByObjectVersion
1070
     0
1000
AcDbSavedByObjectVersion
1070
     0
  0
VISUALSTYLE
  5
2A
102
{ACAD_REACTORS
330
29
102
}
330
29
100
AcDbVisualStyle
  2
Flat
 70
     0
 71
     2
 72
     1
 73
     1
 90
        2
 40
-0.6
 41
30.0
 62
     5
 63
     7
 74
     0
 91
        4
 64
     7
 65
   257
 75
     1
175
     1
 42
1.0
 92
        8
 66
     7
 43
1.0
 76
     1
 77
     6
 78
     2
 67
     7
 79
     5
170
     0
171
     0
290
     0
174
     0
 93
       13
 44
0.0
173
     0
291
     1
 45
0.0
1001
ACAD
1000
AcDbSavedByObjectVersion
1070
     0
1000
AcDbSavedByObjectVersion
1070
     0
1000
AcDbSavedByObjectVersion
1070
     0
1000
AcDbSavedByObjectVersion
1070
     0
1000
AcDbSavedByObjectVersion
1070
     0
1000
AcDbSavedByObjectVersion
1070
     0
  0
VISUALSTYLE
  5
2B
102
{ACAD_REACTORS
330
29
102
}
330
29
100
AcDbVisualStyle
  2
FlatWithEdges
 70
     1
 71
     2
 72
     1
 73
     1
 90
        2
 40
-0.6
 41
30.0
 62
     5
 63
     7
 74
     1
 91
        4
 64
     7
 65
   257
 75
     1
175
     1
 42
1.0
 92
        0
 66
   257
 43
1.0
 76
     1
 77
     6
 78
     2
 67
     7
 79
     5
170
     0
171
     0
290
     0
174
     0
 93
       13
 44
0.0
173
     0
291
     1
 45
0.0
1001
ACAD
1000
AcDbSavedByObjectVersion
1070
     0
1000
AcDbSavedByObjectVersion
1070
     0
1000
AcDbSavedByObjectVersion
1070
     0
1000
AcDbSavedByObjectVersion
1070
     0
1000
AcDbSavedByObjectVersion
1070
     0
1000
AcDbSavedByObjectVersion
1070
     0
  0
VISUALSTYLE
  5
2C
102
{ACAD_REACTORS
330
29
102
}
330
29
100
AcDbVisualStyle
  2
Gouraud
 70
     2
 71
     2
 72
     2
 73
     1
 90
        2
 40
-0.6
 41
30.0
 62
     5
 63
     7
 74
     0
 91
        4
 64
     7
 65
   257
 75
     1
175
     1
 42
1.0
 92
        0
 66
     7
 43
1.0
 76
     1
 77
     6
 78
     2
 67
     7
 79
     5
170
     0
171
     0
290
     0
174
     0
 93
       13
 44
0.0
173
     0
291
     1
 45
0.0
1001
ACAD
1000
AcDbSavedByObjectVersion
1070
     0
1000
AcDbSavedByObjectVersion
1070
     0
1000
AcDbSavedByObjectVersion
1070
     0
1000
AcDbSavedByObjectVersion
1070
     0
1000
AcDbSavedByObjectVersion
1070
     0
1000
AcDbSavedByObjectVersion
1070
     0
  0
VISUALSTYLE
  5
2D
102
{ACAD_REACTORS
330
29
102
}
330
29
100
AcDbVisualStyle
  2
GouraudWithEdges
 70
     3
 71
     2
 72
     2
 73
     1
 90
        2
 40
-0.6
 41
30.0
 62
     5
 63
     7
 74
     1
 91
        4
 64
     7
 65
   257
 75
     1
175
     1
 42
1.0
 92
        0
 66
   257
 43
1.0
 76
     1
 77
     6
 78
     2
 67
     7
 79
     5
170
     0
171
     0
290
     0
174
     0
 93
       13
 44
0.0
173
     0
291
     1
 45
0.0
1001
ACAD
1000
AcDbSavedByObjectVersion
1070
     0
1000
AcDbSavedByObjectVersion
1070
     0
1000
AcDbSavedByObjectVersion
1070
     0
1000
AcDbSavedByObjectVersion
1070
     0
1000
AcDbSavedByObjectVersion
1070
     0
1000
AcDbSavedByObjectVersion
1070
     0
  0
VISUALSTYLE
  5
37
102
{ACAD_REACTORS
330
29
102
}
330
29
100
AcDbVisualStyle
  2
Linepattern
 70
    14
 71
     2
 72
     2
 73
     0
 90
        0
 40
-0.6
 41
-30.0
 62
     5
 63
     7
 74
     1
 91
        4
 64
     7
 65
   257
 75
     7
175
     7
 42
1.0
 92
        8
 66
     7
 43
1.0
 76
     1
 77
     6
 78
     2
 67
     7
 79
     5
170
     0
171
     0
290
     0
174
     0
 93
        1
 44
0.0
173
     0
291
     1
 45
0.0
1001
ACAD
1000
AcDbSavedByObjectVersion
1070
     0
1000
AcDbSavedByObjectVersion
1070
     0
1000
AcDbSavedByObjectVersion
1070
     0
1000
AcDbSavedByObjectVersion
1070
     0
1000
AcDbSavedByObjectVersion
1070
     0
1000
AcDbSavedByObjectVersion
1070
     0
  0
VISUALSTYLE
  5
33
102
{ACAD_REACTORS
330
29
102
}
330
29
100
AcDbVisualStyle
  2
Realistic
 70
     8
 71
     2
 72
     2
 73
     0
 90
        0
 40
-0.6
 41
-30.0
 62
     5
 63
     7
 74
     1
 91
        0
 64
     7
 65
   257
 75
     1
175
     1
 42
1.0
 92
        8
 66
     8
 43
1.0
 76
     1
 77
     6
 78
     2
 67
     7
 79
     5
170
     0
171
     0
290
     0
174
     0
 93
       13
 44
0.0
173
     0
291
     0
 45
0.0
1001
ACAD
1000
AcDbSavedByObjectVersion
1070
     0
1000
AcDbSavedByObjectVersion
1070
     0
1000
AcDbSavedByObjectVersion
1070
     0
1000
AcDbSavedByObjectVersion
1070
     0
1000
AcDbSavedByObjectVersion
1070
     0
1000
AcDbSavedByObjectVersion
1070
     0
  0
VISUALSTYLE
  5
36
102
{ACAD_REACTORS
330
29
102
}
330
29
100
AcDbVisualStyle
  2
Thicken
 70
    13
 71
     2
 72
     2
 73
     0
 90
        0
 40
-0.6
 41
-30.0
 62
     5
 63
     7
 74
     1
 91
        4
 64
     7
 65
   257
 75
     1
175
     1
 42
1.0
 92
       12
 66
     7
 43
1.0
 76
     1
 77
     6
 78
     2
 67
     7
 79
     5
170
     0
171
     0
290
     0
174
     0
 93
        1
 44
0.0
173
     0
291
     1
 45
0.0
1001
ACAD
1000
AcDbSavedByObjectVersion
1070
     0
1000
AcDbSavedByObjectVersion
1070
     0
1000
AcDbSavedByObjectVersion
1070
     0
1000
AcDbSavedByObjectVersion
1070
     0
1000
AcDbSavedByObjectVersion
1070
     0
1000
AcDbSavedByObjectVersion
1070
     0
  0
DICTIONARYVAR
  5
799
102
{ACAD_REACTORS
330
795
102
}
330
795
100
DictionaryVariables
280
     0
  1
1:1
  0
DICTIONARYVAR
  5
797
102
{ACAD_REACTORS
330
795
102
}
330
795
100
DictionaryVariables
280
     0
  1
STANDARD
  0
DICTIONARYVAR
  5
796
102
{ACAD_REACTORS
330
795
102
}
330
795
100
DictionaryVariables
280
     0
  1
STANDARD
  0
DICTIONARYVAR
  5
79E
102
{ACAD_REACTORS
330
795
102
}
330
795
100
DictionaryVariables
280
     0
  1
2
  0
DICTIONARYVAR
  5
79D
102
{ACAD_REACTORS
330
795
102
}
330
795
100
DictionaryVariables
280
     0
  1
1
  0
DICTIONARYVAR
  5
79C
102
{ACAD_REACTORS
330
795
102
}
330
795
100
DictionaryVariables
280
     0
  1
0
  0
DICTIONARYVAR
  5
79A
102
{ACAD_REACTORS
330
795
102
}
330
795
100
DictionaryVariables
280
     0
  1
2
  0
DICTIONARYVAR
  5
798
102
{ACAD_REACTORS
330
795
102
}
330
795
100
DictionaryVariables
280
     0
  1
1
  0
DICTIONARYVAR
  5
79B
102
{ACAD_REACTORS
330
795
102
}
330
795
100
DictionaryVariables
280
     0
  1
127
  0
DICTIONARY
  5
DE
102
{ACAD_REACTORS
330
DC
102
}
330
DC
100
AcDbDictionary
281
     1
  0
XRECORD
  5
F6
102
{ACAD_REACTORS
330
DC
102
}
330
DC
100
AcDbXrecord
280
     1
 90
-1023410169
  0
XRECORD
  5
11C3
102
{ACAD_REACTORS
330
11C2
102
}
330
11C2
100
AcDbXrecord
280
     1
330
1149
330
114A
330
114B
330
D98
330
D99
330
D9A
330
D05
330
D03
330
D04
330
952
330
953
330
954
330
93A
330
926
330
930
  0
DICTIONARY
  5
19E6
330
78
100
AcDbDictionary
280
     1
281
     1
  3
ACAD_XREC_ROUNDTRIP
360
19E7
  0
DICTIONARY
  5
19E4
330
74
100
AcDbDictionary
280
     1
281
     1
  3
ACAD_XREC_ROUNDTRIP
360
19E5
  0
DICTIONARY
  5
19E8
330
7C
100
AcDbDictionary
280
     1
281
     1
  3
ACAD_XREC_ROUNDTRIP
360
19E9
  0
DICTIONARY
  5
1A
330
19
100
AcDbDictionary
280
     1
281
     1
  3
ACAD_XREC_ROUNDTRIP
360
7A6
  3
BUMPTILE
360
1C
  3
DIFFUSETILE
360
1B
  3
OPACITYTILE
360
1F
  3
REFLECTIONTILE
360
1E
  3
REFRACTIONTILE
360
20
  3
SPECULARTILE
360
1D
  0
DICTIONARY
  5
12
330
11
100
AcDbDictionary
280
     1
281
     1
  3
ACAD_XREC_ROUNDTRIP
360
7A5
  3
BUMPTILE
360
14
  3
DIFFUSETILE
360
13
  3
OPACITYTILE
360
17
  3
REFLECTIONTILE
360
16
  3
REFRACTIONTILE
360
18
  3
SPECULARTILE
360
15
  0
DICTIONARY
  5
22
330
21
100
AcDbDictionary
280
     1
281
     1
  3
ACAD_XREC_ROUNDTRIP
360
7A7
  3
BUMPTILE
360
24
  3
DIFFUSETILE
360
23
  3
OPACITYTILE
360
27
  3
REFLECTIONTILE
360
26
  3
REFRACTIONTILE
360
28
  3
SPECULARTILE
360
25
  0
DICTIONARY
  5
79F
330
6D
100
AcDbDictionary
280
     1
281
     1
  3
ACAD_ROUNDTRIP_2008_TABLESTYLE_CELLSTYLEMAP
360
19DD
  3
ACAD_XREC_ROUNDTRIP
360
19E3
  0
XRECORD
  5
19E7
102
{ACAD_REACTORS
330
19E6
102
}
330
19E6
100
AcDbXrecord
280
     1
102
SHADEPLOT
 70
     0
102
SHADEPLOTRESLEVEL
 70
     2
102
SHADEPLOTCUSTOMDPI
 70
   300
  0
XRECORD
  5
19E5
102
{ACAD_REACTORS
330
19E4
102
}
330
19E4
100
AcDbXrecord
280
     1
102
SHADEPLOT
 70
     0
102
SHADEPLOTRESLEVEL
 70
     2
102
SHADEPLOTCUSTOMDPI
 70
   300
  0
XRECORD
  5
19E9
102
{ACAD_REACTORS
330
19E8
102
}
330
19E8
100
AcDbXrecord
280
     1
102
SHADEPLOT
 70
     0
102
SHADEPLOTRESLEVEL
 70
     2
102
SHADEPLOTCUSTOMDPI
 70
   300
  0
XRECORD
  5
7A6
102
{ACAD_REACTORS
330
1A
102
}
330
1A
100
AcDbXrecord
280
     1
102
MATERIAL
148
0.0
149
0.0
149
0.0
 93
        0
 94
      127
282
     0
 72
     0
 77
     0
171
     0
175
     0
179
     0
273
     0
  0
XRECORD
  5
1C
102
{ACAD_REACTORS
330
1A
102
}
330
1A
100
AcDbXrecord
280
     1
270
     1
271
     1
  0
XRECORD
  5
1B
102
{ACAD_REACTORS
330
1A
102
}
330
1A
100
AcDbXrecord
280
     1
270
     1
271
     1
  0
XRECORD
  5
1F
102
{ACAD_REACTORS
330
1A
102
}
330
1A
100
AcDbXrecord
280
     1
270
     1
271
     1
  0
XRECORD
  5
1E
102
{ACAD_REACTORS
330
1A
102
}
330
1A
100
AcDbXrecord
280
     1
270
     1
271
     1
  0
XRECORD
  5
20
102
{ACAD_REACTORS
330
1A
102
}
330
1A
100
AcDbXrecord
280
     1
270
     1
271
     1
  0
XRECORD
  5
1D
102
{ACAD_REACTORS
330
1A
102
}
330
1A
100
AcDbXrecord
280
     1
270
     1
271
     1
  0
XRECORD
  5
7A5
102
{ACAD_REACTORS
330
12
102
}
330
12
100
AcDbXrecord
280
     1
102
MATERIAL
148
0.0
149
0.0
149
0.0
 93
        0
 94
      127
282
     0
 72
     0
 77
     0
171
     0
175
     0
179
     0
273
     0
  0
XRECORD
  5
14
102
{ACAD_REACTORS
330
12
102
}
330
12
100
AcDbXrecord
280
     1
270
     1
271
     1
  0
XRECORD
  5
13
102
{ACAD_REACTORS
330
12
102
}
330
12
100
AcDbXrecord
280
     1
270
     1
271
     1
  0
XRECORD
  5
17
102
{ACAD_REACTORS
330
12
102
}
330
12
100
AcDbXrecord
280
     1
270
     1
271
     1
  0
XRECORD
  5
16
102
{ACAD_REACTORS
330
12
102
}
330
12
100
AcDbXrecord
280
     1
270
     1
271
     1
  0
XRECORD
  5
18
102
{ACAD_REACTORS
330
12
102
}
330
12
100
AcDbXrecord
280
     1
270
     1
271
     1
  0
XRECORD
  5
15
102
{ACAD_REACTORS
330
12
102
}
330
12
100
AcDbXrecord
280
     1
270
     1
271
     1
  0
XRECORD
  5
7A7
102
{ACAD_REACTORS
330
22
102
}
330
22
100
AcDbXrecord
280
     1
102
MATERIAL
148
0.0
149
0.0
149
0.0
 93
        0
 94
      127
282
     0
 72
     0
 77
     0
171
     0
175
     0
179
     0
273
     0
  0
XRECORD
  5
24
102
{ACAD_REACTORS
330
22
102
}
330
22
100
AcDbXrecord
280
     1
270
     1
271
     1
  0
XRECORD
  5
23
102
{ACAD_REACTORS
330
22
102
}
330
22
100
AcDbXrecord
280
     1
270
     1
271
     1
  0
XRECORD
  5
27
102
{ACAD_REACTORS
330
22
102
}
330
22
100
AcDbXrecord
280
     1
270
     1
271
     1
  0
XRECORD
  5
26
102
{ACAD_REACTORS
330
22
102
}
330
22
100
AcDbXrecord
280
     1
270
     1
271
     1
  0
XRECORD
  5
28
102
{ACAD_REACTORS
330
22
102
}
330
22
100
AcDbXrecord
280
     1
270
     1
271
     1
  0
XRECORD
  5
25
102
{ACAD_REACTORS
330
22
102
}
330
22
100
AcDbXrecord
280
     1
270
     1
271
     1
  0
CELLSTYLEMAP
  5
19DD
102
{ACAD_REACTORS
330
79F
102
}
330
79F
100
AcDbCellStyleMap
 90
        3
300
CELLSTYLE
  1
TABLEFORMAT_BEGIN
 90
        5
170
     1
 91
        0
 92
    32768
 62
   257
 93
        1
300
CONTENTFORMAT
  1
CONTENTFORMAT_BEGIN
 90
        0
 91
        0
 92
      512
 93
        0
300

 40
0.0
140
1.0
 94
        5
 62
     0
340
5D
144
6.0
309
CONTENTFORMAT_END
171
     1
301
MARGIN
  1
CELLMARGIN_BEGIN
 40
1.5
 40
1.5
 40
1.5
 40
1.5
 40
0.18
 40
0.18
309
CELLMARGIN_END
 94
        6
 95
        1
302
GRIDFORMAT
  1
GRIDFORMAT_BEGIN
 90
        0
 91
        1
 62
     0
 92
       -2
340
0
 93
        0
 40
1.125
309
GRIDFORMAT_END
 95
        2
302
GRIDFORMAT
  1
GRIDFORMAT_BEGIN
 90
        0
 91
        1
 62
     0
 92
       -2
340
0
 93
        0
 40
1.125
309
GRIDFORMAT_END
 95
        4
302
GRIDFORMAT
  1
GRIDFORMAT_BEGIN
 90
        0
 91
        1
 62
     0
 92
       -2
340
0
 93
        0
 40
1.125
309
GRIDFORMAT_END
 95
        8
302
GRIDFORMAT
  1
GRIDFORMAT_BEGIN
 90
        0
 91
        1
 62
     0
 92
       -2
340
0
 93
        0
 40
1.125
309
GRIDFORMAT_END
 95
       16
302
GRIDFORMAT
  1
GRIDFORMAT_BEGIN
 90
        0
 91
        1
 62
     0
 92
       -2
340
0
 93
        0
 40
1.125
309
GRIDFORMAT_END
 95
       32
302
GRIDFORMAT
  1
GRIDFORMAT_BEGIN
 90
        0
 91
        1
 62
     0
 92
       -2
340
0
 93
        0
 40
1.125
309
GRIDFORMAT_END
309
TABLEFORMAT_END
  1
CELLSTYLE_BEGIN
 90
        1
 91
        1
300
_TITLE
309
CELLSTYLE_END
300
CELLSTYLE
  1
TABLEFORMAT_BEGIN
 90
        5
170
     1
 91
        0
 92
        0
 62
   257
 93
        1
300
CONTENTFORMAT
  1
CONTENTFORMAT_BEGIN
 90
        0
 91
        0
 92
      512
 93
        0
300

 40
0.0
140
1.0
 94
        5
 62
     0
340
5D
144
4.5
309
CONTENTFORMAT_END
171
     1
301
MARGIN
  1
CELLMARGIN_BEGIN
 40
1.5
 40
1.5
 40
1.5
 40
1.5
 40
0.18
 40
0.18
309
CELLMARGIN_END
 94
        6
 95
        1
302
GRIDFORMAT
  1
GRIDFORMAT_BEGIN
 90
        0
 91
        1
 62
     0
 92
       -2
340
0
 93
        0
 40
1.125
309
GRIDFORMAT_END
 95
        2
302
GRIDFORMAT
  1
GRIDFORMAT_BEGIN
 90
        0
 91
        1
 62
     0
 92
       -2
340
0
 93
        0
 40
1.125
309
GRIDFORMAT_END
 95
        4
302
GRIDFORMAT
  1
GRIDFORMAT_BEGIN
 90
        0
 91
        1
 62
     0
 92
       -2
340
0
 93
        0
 40
1.125
309
GRIDFORMAT_END
 95
        8
302
GRIDFORMAT
  1
GRIDFORMAT_BEGIN
 90
        0
 91
        1
 62
     0
 92
       -2
340
0
 93
        0
 40
1.125
309
GRIDFORMAT_END
 95
       16
302
GRIDFORMAT
  1
GRIDFORMAT_BEGIN
 90
        0
 91
        1
 62
     0
 92
       -2
340
0
 93
        0
 40
1.125
309
GRIDFORMAT_END
 95
       32
302
GRIDFORMAT
  1
GRIDFORMAT_BEGIN
 90
        0
 91
        1
 62
     0
 92
       -2
340
0
 93
        0
 40
1.125
309
GRIDFORMAT_END
309
TABLEFORMAT_END
  1
CELLSTYLE_BEGIN
 90
        2
 91
        1
300
_HEADER
309
CELLSTYLE_END
300
CELLSTYLE
  1
TABLEFORMAT_BEGIN
 90
        5
170
     1
 91
        0
 92
        0
 62
   257
 93
        1
300
CONTENTFORMAT
  1
CONTENTFORMAT_BEGIN
 90
        0
 91
        0
 92
      512
 93
        0
300

 40
0.0
140
1.0
 94
        2
 62
     0
340
5D
144
4.5
309
CONTENTFORMAT_END
171
     1
301
MARGIN
  1
CELLMARGIN_BEGIN
 40
1.5
 40
1.5
 40
1.5
 40
1.5
 40
0.18
 40
0.18
309
CELLMARGIN_END
 94
        6
 95
        1
302
GRIDFORMAT
  1
GRIDFORMAT_BEGIN
 90
        0
 91
        1
 62
     0
 92
       -2
340
0
 93
        0
 40
1.125
309
GRIDFORMAT_END
 95
        2
302
GRIDFORMAT
  1
GRIDFORMAT_BEGIN
 90
        0
 91
        1
 62
     0
 92
       -2
340
0
 93
        0
 40
1.125
309
GRIDFORMAT_END
 95
        4
302
GRIDFORMAT
  1
GRIDFORMAT_BEGIN
 90
        0
 91
        1
 62
     0
 92
       -2
340
0
 93
        0
 40
1.125
309
GRIDFORMAT_END
 95
        8
302
GRIDFORMAT
  1
GRIDFORMAT_BEGIN
 90
        0
 91
        1
 62
     0
 92
       -2
340
0
 93
        0
 40
1.125
309
GRIDFORMAT_END
 95
       16
302
GRIDFORMAT
  1
GRIDFORMAT_BEGIN
 90
        0
 91
        1
 62
     0
 92
       -2
340
0
 93
        0
 40
1.125
309
GRIDFORMAT_END
 95
       32
302
GRIDFORMAT
  1
GRIDFORMAT_BEGIN
 90
        0
 91
        1
 62
     0
 92
       -2
340
0
 93
        0
 40
1.125
309
GRIDFORMAT_END
309
TABLEFORMAT_END
  1
CELLSTYLE_BEGIN
 90
        3
 91
        2
300
_DATA
309
CELLSTYLE_END
  0
XRECORD
  5
19E3
102
{ACAD_REACTORS
330
79F
102
}
330
79F
100
AcDbXrecord
280
     1
102
ACAD_ROUNDTRIP_PRE2007_TABLESTYLE
 90
      512
 91
        0
  1

 92
      512
 93
        0
  2

 94
      512
 95
        0
  3

  0
ENDSEC
  0
EOF
